PrimaNota.ru - самый крупный в мире бесплатный архив песенных текстов, аккордов, табулатур и нот


Elham Madfai - Foug El Nakhal (feat. Saif Shaheen) - таба, видео

Регистрация Запомнить меня
Войти через:  Facebook Google Twitter Vk Yandex Mail.ru

Elham Madfai - Foug El Nakhal (feat. Saif Shaheen) - таба, видео

Печатать
Просмотров: 77
                                      FOUG EL NAKHAL

*this guitar tab shows how ELHAM EL-MADFAY and SAIF SHAHEEN play it its a 
little different from
the original

*all the song is played on 3 chords only (Am,Em,F)

*Notes that there are 2 guitars playing

*by the way i think no body gonna open this tab...if you have any comments 
or want tabs for elham
or siaf ...e-mail me (lets_metal@hotmail.com)


---------------------------------------------------

Q=110
Gtr I
    E  Q   E    Q    Q       4x
||-----0---0---------0-------||----|
||o----1---1---------1------o||----|
||-----2---2---------2-------||----|
||-----2---2---------2-------||----|
||o-0-----------0-----------o||----|
||---------------------------||----|
|
|   Gtr II
|   E  Q   S S  E E  E  S S  4x
||---------------------------||----|
||o---10--10p9----9-10-10p9-o||----|
||--9----------10------------||----|
||---------------------------||----|
||o-------------------------o||----|
||---------------------------||----|


     E     Q   E     Q       Q
||---------0---0-------------0---|
||o--------1---1-------------1---|
||---------2---2-------------2---|
||---------2---2-------------2---|
||o--0---------------0-----------|
||-------------------------------|
|
|    TP TP TP  TP TP TP TPTP TPTP
|    S  S  Q   S  S  E  S S  E E
||-------------------------------|
||o-10-12-13--12-10-12-10-9-10-9-|
||-------------------------------|
||-------------------------------|
||o------------------------------|
||-------------------------------|


  E     Q   E    Q      Q       E    Q  E    Q       Q
|-------0---0-----------0----|-------1--1------------1----|
|-------0---0-----------0----|-------1--1------------1----|
|-------1---1-----------1----|-------2--2------------2----|
|-------2---2-----------2----|-------3--3------------3----|
|-2--------------2-----------|--3------------3------------|
|----------------------------|----------------------------|
|
| TP TP TP  TPTP TPTP TPTP TP   TPTP TP TP TPTP TPTP TPTP
| S  S  Q   S S  E S  S E  E    S S  Q  S  S E  S S  E E
|----------------------------|----------------------------|
|-9-10-12--10-9-10-9----9----|----9-10--9----9------------|
|--------------------10---10-|-10---------10---10-9-10-9--|
|----------------------------|----------------------------|
|----------------------------|----------------------------|
|----------------------------|----------------------------|


  E  Q    E  Q       Q          E  Q   E    Q    Q
|----0----0----------0---||-||-----0---0---------0--------||----|
|----0----0----------0--o||-||o----1---1---------1-------o||----|
|----1----1----------1---||-||-----2---2---------2--------||----|
|----2----2----------2---||-||-----2---2---------2--------||----|
|-2----------2----------o||-||o-0-----------0------------o||----|
|------------------------||-||----------------------------||----|
|
| E  E E  E  S  S E  E          E  Q   S S  E E  E  S S
|------------------------||-||----------------------------||----|
|------9-10-12p10p9-10--o||-||o---10--10p9----9-10-10p9--o||----|
|-9-10-------------------||-||--9----------10-------------||----|
|------------------------||-||----------------------------||----|
|-----------------------o||-||o--------------------------o||----|
|------------------------||-||----------------------------||----|


*VERSE:::::
    E Q  E Q  Q   3x  E Q  E Q  Q
||----0--0----0---||----0--0----0----|
||o---1--1----1--o||----0--0----0----|
||----2--2----2---||----1--1----1----|
||----2--2----2---||----2--2----2----|
||o-0------0-----o||--2------2-------|
||----------------||-----------------|


    E Q  E Q  Q   3x E Q  E Q  Q    E Q  E Q  Q    E Q  E Q  Q
||----0--0----0---||---0--0----0--|---0--0----0--|---0--0----0---|
||o---1--1----1--o||---0--0----0--|---0--0----0--|---1--1----1---|
||----2--2----2---||---1--1----1--|---1--1----1--|---2--2----2---|
||----2--2----2---||---2--2----2--|---2--2----2--|---2--2----2---|
||o-0------0-----o||-2------2-----|-2------2-----|-0------0------|
||----------------||--------------|--------------|---------------|


  E Q  E Q  Q    E Q  E Q  Q
|---1--1----1--|---0--0----0----|
|---1--1----1--|---0--0----0----|
|---2--2----2--|---1--1----1----|
|---3--3----3--|---2--2----2----|
|-3------3-----|-2------2-------|
|--------------|----------------|

this is pretty much the song keep repeating the same parts

------------------------------------
Duration Legend
---------------
W - whole; H - half; Q - quarter; E - 8th; S - 16th; T - 32nd; X - 64th; a - 
acciaccatura
+ - note tied to previous; . - note dotted; .. - note double dotted
Uncapitalized letters represent notes that are staccato (1/2 duration)
Irregular groupings are notated above the duration line
Duration letters will always appear directly above the note/fret number it 
represents the
duration for.  Duration letters with no fret number below them represent 
rests.  Multi-
bar rests are notated in the form Wxn, where n is the number of bars to rest 
for.  Low
melody durations appear below the staff

Tablature Legend
----------------
h   - hammer-on
p   - pull-off
b   - bend
pb  - pre-bend
r   - bend release (if no number after the r, then release immediately)
/\  - slide into or out of (from/to "nowhere")
s   - legato slide
S   - shift slide
 n>  - natural harmonic
[n]  - artificial harmonic
n(n) - tapped harmonic
~   - vibrato
tr  - trill
T   - tap
TP  - trem. picking
PM  - palm muting
\n/  - tremolo bar dip; n = amount to dip
\n  - tremolo bar down
n/  - tremolo bar up
/n\  - tremolo bar inverted dip
=   - hold bend; also acts as connecting device for hammers/pulls
 >  - volume swell (louder/softer)
x   - on rhythm slash represents muted slash
o   - on rhythm slash represents single note slash

Misc Legend
-----------
|  - bar
||  - double bar
||o - repeat start
o|| - repeat end
*|  - double bar (ending)
:  - bar (freetime)
$  - Segno
&  - Coda
Tempo markers -  E/E./Q/Q./H/H.> = BPM(8/16=s8/s16), where s8 = swing 8ths, 
s16 = swing 16ths

     
Добавлено: 16.09.2013
Другие материалы по этой песне:
  • Аккорды и текст

Страница создана 16.09.2013
http://primanota.ru/elham-madfai/foug-el-nakhal-chords.htm
Привет, Гость.
Предлагаем пройти революционный курс по гитаре.
Подарок от PrimaNota.Ru, забирай!