PrimaNota.ru - самый крупный в мире бесплатный архив песенных текстов, аккордов, табулатур и нот


Elgins - Put Yourself In My Place - бас-таба, видео

Регистрация Запомнить меня
Войти через:  Facebook Google Twitter Vk Yandex Mail.ru

Elgins - Put Yourself In My Place - бас-таба, видео

Печатать
Просмотров: 65
Put Yourself In My Place
This version by The Elgins recorded as a B side in 1965 re-released
In 1971 reached number 28 UK. Bass performance James Jamerson
Tab by bass50611. Welcome to my tab. Great track and not a difficult 
bass line from the master. Comments bass254@btinternet.com 

Intro:
   .      .       .      .      .
G|--------------------------------
D|--------7------10------8------5-
A|-7------------------------------
E|--------------------------------

Chorus 1:
G|----------------------------------------------------------------
D|----------------------------------------------------------------
A|-3--3-3---5--5-5---7--7-7---------5--5-5-------2-3--3-3---1--1--
E|--------------------------5--5-5---------3--3-3---------------3-

G|----------------------------------------------------------2-
D|--------------------------7--7-7---------5--5-5---------2---
A|-3--3-3---5--5-5---7--7-7---------5--5-5-------2-3--3-3-----
E|------------------------------------------------------------

Verse 1:
G|--------------------------2------------------------------------
D|-3--3-3---2--2-0--------2-----3--3-3---2--2-2------------------
A|-----3-------------3--3-----------------------5--5-5---3--3-1--
E|----------------3--------------------------------------------3-

Chorus 2 & Sax Solo:
G|----------------------------------------------------------------
D|--------------------------7--7-7--------5--5-5------------------
A|-3--3-3---5--5-5---7--7-7--------5--5-5-------2-3--3-3---1-1----
E|------------------------------------------------------------3-3-

Verse 2:
G|------------------------------2------------------------------------
D|-3--3-3---2--2-0---------0-2-2----3--3-3---2--2-2------------------
A|-----3--------------3--3----2---------------------5--5-5---3--3-1--
E|-----------------3-----------------------------------------------3-

Chorus 3:
G|-----------------------------------------------------------
D|--------------------------7--7-7--------5--5-5-------------
A|-3--3-3---5--5-5---7--7-7--------5--5-5--------3--3-3---1--
E|------------------7--------------------------------------3-

Chorus 4:
G|-----------------------------------------------------------------
D|--------------------------7--7-7--------5--5-5-------------------
A|-3--3-3---5--5-5---7--7-7--------5--5-5--------2-3--3-3---1-1----
E|------------------7------------------------------------------3-3-

Chorus 5:                                   (Repeat To Fade/End)
G|---------------------------------------------------------------
D|------------------------7--7-7----------5--5-5-----------------
A|-3--3-3-4-5--5-5-7--7-7-----7--7-5--5-5--------2-3--3-3--1--1--
E|--------------5------7---------------------------------------3-
Добавлено: 22.06.2016
Другие материалы по этой песне:
  • Аккорды и текст

Страница создана 22.06.2016
http://primanota.ru/elgins/put-yourself-in-my-place-chords.htm
Привет, Гость.
Предлагаем пройти революционный курс по гитаре.
Подарок от PrimaNota.Ru, забирай!