PrimaNota.ru - самый крупный в мире бесплатный архив песенных текстов, аккордов, табулатур и нот


Eleventyseven - ODDs And Even SOs - текст песни, таба, видео

Регистрация Запомнить меня
Войти через:  Facebook Google Twitter Vk Yandex Mail.ru

Eleventyseven - ODDs And Even SOs - текст песни, таба, видео

Печатать
Просмотров: 147
Уроки эстрадного вокала в Санкт-Петербурге


i think i'm the only person that posts tabs from this band

h=hammer on
=slide down
pm=palm mute
~=let ring              Standard tuning

INTRO

e---------------------------------------------
B---------------------------------------------
G-77777-7-6-77/9-7-------9-7-66h77------------
D-77777------------77777----------------------
A-55555------------77777----------------------
E------------------55555----------------------

INTRO CONTINUED

e---------------------------------------------
B---------------------------------------------
G------------------4-4-4444-6-6-6666----------
D-99999-11-9-66h77-5-5-5555-7-7-7777----------
A-99999------------5-5-5555-7-7-7777----------
E-77777------------3-3-3333-5-5-5555----------
do the intro twice and on the second time do a pick slide into the verse

VERSE

e-------------------------------------
B-------------------------------------
G-77777-------------------------------
D-77777--------77777--------99999-----
A-55555--------77777--------99999-----
E--------------55555--------77777-----

VERSE CONTINUED

e-------------------------------------
B-------------------------------------
G-4-4-4444-6-6-6666-------------------
D-5-5-5555-7-7-7777-------------------
A-5-5-5555-7-7-7777-------------------
E-3-3-3333-5-5-5555-------------------
do the verse twice but on the second time do this
on instead of whats under verse continued.

e-------------------------------------
B-------------------------------------
G-------------------------------------
D-5-5-5-5-7-7-7-7---------------------
A-5-5-5-5-7-7-7-7---------------------
E-3-3-3-3-5-5-5-5---------------------
pm................

CHORUS

e-------------------------------------------
B-------------------------------------------
G-77777777----------------------------------
D-77777777-77777777-99999999-555555-777777--
A-55555555-77777777-99999999-555555-777777--
E----------55555555-77777777-333333-555555--

CHORUS CONTINUED

e-------------------------------------------
B-------------------------------------------
G-77777777----------------------------------
D-77777777-77777777-99999999---5~---7~------
A-55555555-77777777-99999999---5~---7~------
E----------55555555-77777777---3~---5~------

BRIDGE GUITAR 1
play this clean
e-----------------------------------------------
B-----------------------------------------------
G-12--12--12--12--14--14--14--14--11--11--11--11
D---12--12--12--12--12--12--12--12--12--12--12--
A-----------------------------------------------
E-----------------------------------------------

BRIDGE CONTINUED

e-----------------------------------------------
B-----------------------------------------------
G---11--11--11--11------------------------------
D-12--12--12--12--12----------------------------
A-----------------------------------------------
E-----------------------------------------------

BRIDGE GUITAR 2
listen to teh song to figure out when to play this part
e----------------------------------------------
B-----------------------------------------------
G-66-77-6---------------------------------------
D-66-77-6---------------------------------------
A-44-55-4---------------------------------------
E-----------------------------------------------

BRIDGE PART 2(the guitars play the same thing in this part)

e-----------------------------------------------
B-----------------------------------------------
G-------------------7777777777777777------------
D-55555555-77777777-7777777777777777------------
A-55555555-77777777-5555555555555555------------
E-33333333-55555555-----------------------------
play this part four times

this os the order the song is played in

intro
verse
chorus
verse
chorus
bridge
chorus
     thats it pretty simple hope you like it

Добавлено: 28.11.2013
Другие материалы по этой песне:
  • Аккорды и текст

Страница создана 22.03.2012
http://primanota.ru/eleventyseven/odds-and-even-sos-chords.htm
Привет, Гость.
Предлагаем пройти революционный курс по гитаре.
Подарок от PrimaNota.Ru, забирай!