PrimaNota.ru - самый крупный в мире бесплатный архив песенных текстов, аккордов, табулатур и нот


Eleven - Youre Not Alone - таба, видео

Регистрация Запомнить меня
Войти через:  Facebook Google Twitter Vk Yandex Mail.ru

Eleven - Youre Not Alone - таба, видео

Печатать
Просмотров: 140
Уроки эстрадного вокала в Санкт-Петербурге
---------------------------------------------------------------------------
         You'll Never Know Main Riff - Eleven - Avantgardedog
---------------------------------------------------------------------------
Tabbed by:CheerLeah
Email: leah_w_89@hotmail.com

Tuning: Standard
This sounds right, I played it with the song.

e|---------------------------------------------------------------------------|
B|-7-6~-5h6p5-3-3-0----------------------------------------------------------|
G|------------------2~--2--2--3-4--------------------------------------------|
D|---------------------------------0--0-2-4----------------------------------|
A|---------------------------------------------------------------------------|
E|---------------------------------------------------------------------------|

e|---------------------------------------------------------------------------|
B|---------------------------------------------------------------------------|
G|-2-2--/-6-6-/-7-7-/-9-9----------------------------------------------------|
D|---------------------------------------------------------------------------|
A|---------------------------------------------------------------------------|
E|---------------------------------------------------------------------------|
The chords for the chorus should be along soon.
Добавлено: 17.07.2012
Другие материалы по этой песне:
  • Аккорды и текст

Страница создана 20.06.2012
http://primanota.ru/eleven/youre-not-alone-chords.htm
Привет, Гость.
Предлагаем пройти революционный курс по гитаре.
Подарок от PrimaNota.Ru, забирай!