PrimaNota.ru - самый крупный в мире бесплатный архив песенных текстов, аккордов, табулатур и нот


Elephant Revival - The Obvious - аккорды и текст, видео

Регистрация Запомнить меня
Войти через:  Facebook Google Twitter Vk Yandex Mail.ru

Elephant Revival - The Obvious - аккорды и текст, видео

Печатать
Просмотров: 146
Уроки эстрадного вокала в Санкт-Петербурге
The Obvious
Elephant Revival
The tuning is a whole step down on the album, but most live versions have it in standard tuning
with no capo. Also, I'm relatively unsure of some of the lyrics. Please comment with lyric corrections if you 
have them!


Intro: 

------------------------------------------------------------------------------------|
---------3p0----------0------0-------3p0----------0---------------------------------|
-------------2p0--0h2----0h2-------------2p0--0h2---2p0-----------------------------|  2x
--------------------------------------------------------2---------------------------| 
-----3--------------------------3---------------------------------------------------|
------------------------------------------------------------------------------------|


Verse 1: 
          Em              C
By the moonlight, we'll rise with awaking
  G                  D
knees not shaking, (sharp and shaping down??).
Em           C
The dawn's raised and dim breaking
  G                  D
truth a blazing, perfect phase in.
Em           C
Oh they're taken for the taking
      G                   D
for what's not bound is what's not maiden.
Em      C
No we will not take it,
 G            D
not rely, we will not take it.



Intro 4x



Verse 2: 
       Em       C
The future will be much better-
G                    D
those in chains will be unfeathered.
Em                    C
And lots live (like shaman above the tree line??)
G                   D
no defeat when we join each other here.
Em                       C
I heard it through the walls of the station
G                      D
steel and stone could not contain us.
Em           C
Beyond the bounds of the nation
G                      D
steel and stone could not contain us.



Riff:

----------------------------------------------------------------------------------------------------|
-----0h3-3--0h3-3/5------0h3-3--0h3-3/5------0h3-3--0h3-3/5------0h3-3--------0---------------------|
-----0h2-2--0h2-2/4------0h2-2--0h2 2/4------0h2-2--0h2-2/4------0h2-2----0h2---2p0-----------------| 
------------------------------------------------------------------------------------2---------------|
--3-------------------3-----------------------------------------------------------------------------|
------------------------------------------0-------------------0-------------------------------------|

----------------------------------------------------------------------------------------------------|
-----0h3-3--0h3-3/5------0h3-3--0h3-3/5------0h3-3--0h3-3/5------0h3-3------------------------------|
-----0h2-2--0h2-2/4------0h2-2--0h2 2/4------0h2-2--0h2-2/4------0h2-2------------------------------| 
----------------------------------------------------------------------------------------------------|
--3-------------------3-----------------------------------------------------------------------------|
------------------------------------------0-------------------0-------------------------------------|


Bridge:

C | Em | C | D | Em | D |
        It's obvious  
C | D | G | D (stop)
  It's obvious

Verse3:
           Em            C
By the moonlight, we'll rise with awaking
  G                  D
knees not shaking, (sharp and shaping down.??)
Em           C
The dawn's raised and dim breaking
G                   D
truth a blazing, perfect phase in.
Em                       C
I heard it through the walls of the station
G                      D
steel and stone could not contain us.
Em            C
Beyond the bounds of the nation
G                      D
steel and stone could not contain us.



Em | C | G | D
la la la     Could not contain us
Em | C | G | D
la la la     Could not contain us

Riff
Добавлено: 26.06.2016
Другие материалы по этой песне:
  • Аккорды и текст

Страница создана 26.06.2016
http://primanota.ru/elephant-revival/obvious-chords.htm
Привет, Гость.
Предлагаем пройти революционный курс по гитаре.
Подарок от PrimaNota.Ru, забирай!