PrimaNota.ru - самый крупный в мире бесплатный архив песенных текстов, аккордов, табулатур и нот


Elephant Gym - Dance Togther - таба, видео

Регистрация Запомнить меня
Войти через:  Facebook Google Twitter Vk Yandex Mail.ru

Elephant Gym - Dance Togther - таба, видео

Печатать
Просмотров: 44
|---------------------------------------------------------------------------------------------------------------
|--------------------------------------------------------5-7-5----------5-7/10----------------------------------
|------8---8----8h9------------8---8----8h9------------5-------5------5-----------8---8----8h9---------8---8----
|----6---6----6-----9p6------6---6----6------9p6--5/7-------------5/7-----------6---6----6-----9p6---6---6----6-
|--7-----------------------7--------------------------------------------------7--------------------7------------
|---------------------------------------------------------------------------------------------------------------

|--------------------------------------------------------------------------------------------------------------
|---------------5-7-5---------5-7/10-9-------9--9--9--10---------12-10-9-9-------9--9--9--10---------12-10-9---
|8h9----------5------5------5--------8-8----8--8--8---9--9------9--------8-8----8--8--8---9--9------9----------
|----9p6--5/7-----------5/7----------9--9--9--9--9----11--11--11---------9--9--9--9--9----11--11--11-----------
|--------------------------------------------------------------------------------------------------------------
|--------------------------------------------------------------------------------------------------------------

   |------------------------------------------------------------------------------------------------------------
   |9999-9999----9999-9999----9999-9999----10101010--12-10------------------------------------------------------
2x |8888-8888-8--8888-8888-8--9999-9999-9---9-9-9-9---9--9------------------------------------------------------
   |9999-9999--9-9999-9999--9-9999-9999--9-11111111--11-11------------------------------------------------------
   |------------------------------------------------------------------------------------------------------------
   |------------------------------------------------------------------------------------------------------------

   |------------------------------------------------------------------------------------------------------------
   |12p9--------9-12p9-------9-12p9-------9-10101010--12-10-----------------------------------------------------
3x |----9-----9-8-----9----9-8-----9----9-8--9-9-9-9---9--9-----------------------------------------------------
   |-----9h11---9------9h11--9------9h11--9-11111111--11-11-----------------------------------------------------
   |------------------------------------------------------------------------------------------------------------
   |------------------------------------------------------------------------------------------------------------

   |------------------------------------------------------------------------------------------------------------
   |9999-9999----9999-9999----9999-9999----10101010--12-10------------------------------------------------------
2x |8888-8888-8--8888-8888-8--9999-9999-9---9-9-9-9---9--9------------------------------------------------------
   |9999-9999--9-9999-9999--9-9999-9999--9-11111111--11-11------------------------------------------------------
   |------------------------------------------------------------------------------------------------------------
   |------------------------------------------------------------------------------------------------------------

   |------------------------------------------------------------------------------------------------------------
   |12p9--------9-12p9-------9-12p9-------9-10101010--12-10-----------------------------------------------------
3x |----9-----9-8-----9----9-8-----9----9-8--9-9-9-9---9--9-----------------------------------------------------
   |-----9h11---9------9h11--9------9h11--9-11111111--11-11-----------------------------------------------------
   |------------------------------------------------------------------------------------------------------------
   |------------------------------------------------------------------------------------------------------------

|---------------------------------------------------------------------------------------------------------------
|55---5-----7-7--55---5-----7-7--55---5-----7-7-----------------------------------------------------------------
|44--4-4/5-5---5-44--4-4/5-5---5-44--4-4/5-5---5---8---8--------------------------------------------------------
|66-6-----7--7---66-6-----7--7---66-6-----7--7----6---6---------------------------------------------------------
|------------------------------------------------7--------------------------------------------------------------
|---------------------------------------------------------------------------------------------------------------
h=hammer on p=pull off /=slide up This is my first tab :)
Добавлено: 25.12.2015
Другие материалы по этой песне:
  • Аккорды и текст

Страница создана 25.12.2015
http://primanota.ru/elephant-gym/dance-togther-chords.htm
Привет, Гость.
Предлагаем пройти революционный курс по гитаре.
Подарок от PrimaNota.Ru, забирай!