PrimaNota.ru - самый крупный в мире бесплатный архив песенных текстов, аккордов, табулатур и нот


Element Eighty - Victims - текст песни, таба, видео

Регистрация Запомнить меня
Войти через:  Facebook Google Twitter Vk Yandex Mail.ru

Element Eighty - Victims - текст песни, таба, видео

Печатать
Просмотров: 132
Уроки эстрадного вокала в Санкт-Петербурге
Element Eighty: Victims

Transcribed by: mysticguitar77

YouTube Username: MysticGuitar77

Date last modified: August 14, 2012

Tuning: Drop C# (C#,G#,C#,F#,A#,D#)

Notes: Due to the many alterations that Element Eighty use in their songs, I'll
be tabbing this song straight through, note for note, the exact way I play it in my 
cover. It's certainly not 100%, but I think it's very close.

Tab Notation:
/ = slide up
\ = slide down
h = hammer-on
p = pull-off
ph= pinched harmonic
* = natural harmonic (in tab)
php= pinched harmonic & pull-off
ph/= pinched harmonic & slide up
* = palm mute (underneath tab)

               "Tell me..."
D#|-----------------------------------------|
A#|-----------------------------------------|
F#|-----------------------------------------|
C#|---------------------------5php0---------|
G#|-------------2-3-0-0---0-0-------0-5php0-|
C#|-3-0-4-5-7-0-----0-0---0-0-------0-------|
                    * *   * *       *

               "How long until of all this breaks me..."
D#|------------------------------------------------------|
A#|------------------------------------------------------|
F#|------------------------------------------------------|
C#|-------5php0-----------5ph/7--------------------------|
G#|-0-0-0-------0-5php0-0-------0-0--5\--5-5-5php0-0-----|
C#|-0-0-0-------0-------0-------0-0--5\--5-5-------0-5ph-|
    * * *       *       *       * *      * *       *

               "Because I always knew that this was ending..."
D#|--------------------------------------------------------------|
A#|--------------------------------------------------------------|
F#|-----------------------------------------------------5*5*5*5*-|
C#|---------------------------------------5php0---------5*5*5*5*-|
G#|-5-5-5php0-------5-5-5ph/8-0-2--0--0-0-------0-5php0----------|
C#|-5-5-------3ph/5-5-5-------0-2--0--0-0-------0----------------|
    * *             * *       *       * *       *

               "Everything that I tried to keep from falling..."
D#|------------------------------------------------------|
A#|------------------------------------------------------|
F#|------------------------------------------------------|
C#|-------5php0-----------5ph/7--------------------------|
G#|-0-0-0-------0-5php0-0-------0-0--5\--5-5-5php0-0-----|
C#|-0-0-0-------0-------0-------0-0--5\--5-5-------0-5ph-|
    * * *       *       *       * *      * *       *

               "And now it's down, it's down..."
D#|---------------------------------|
A#|---------------------------------|
F#|---------------------------------|
C#|---------------------------------|
G#|-5-5-5php0-------------------2-3-|
C#|-5-5-------3ph/5-3-0-4-5-7-0-----|
    * *

               "Inside my head, where the world is spinning 'round..."
D#|------------------------------------------------|
A#|------------------------------------------------|
F#|-----14---12---11---7-7-----5------12-11--------|
C#|-----x----x----x----x-x-----5------------x-12ph-|
G#|-0-0-12---10---9----5-5-0-0-3-3333--------------|
C#|-0-0----0----0----0-----0-0---------------------|
    * *    *    *    *     * *   ****

               "I am begging please, let me go away..."
D#|-------------------------------------------------------|
A#|-------------------------------------------------------|
F#|--------------------------7-7----777---------------7ph-|
C#|--------------------------x-x-------777---------777----|
G#|-0-5\-3-/15\-2--7-5-5\4-x-5-5-555------555999555-------|
C#|-0-5\-3-/15\-2--7-5-5\4-x------------------------------|
    *                            *********************

               "Tell me, why can't you make yourself release me..."
D#|--------------------------------------|
A#|--------------------------------------|
F#|-----feedback--------feedback---------|
C#|--------------------------------------|
G#|-0~--------------5~-------------------|
C#|-0~--------------5~-------------------|

               "'Cause I always knew that this would take me underneath..."
D#|--------------------------|
A#|--------------------------|
F#|--------------------------|
C#|--------------------------|
G#|-5-5-5ph/8-0-2--0--0-0--0-|
C#|-5-5-------0-2--0--0-0--0-|
    * *       *       * *  *

               "Everything that I tried to keep is drowning..."
D#|--------------------------------------|
A#|--------------------------------------|
F#|--------------------------------------|
C#|--------------------------------------|
G#|-0-0-0--0--0--0-0-5\--5-5-5php0-0-----|
C#|-0-0-0--0--0--0-0-5\--5-5-------0-5ph-|
    * * *  *  *  * *     * *       *

               "And now it's down, it's down..."
D#|---------------------------------|
A#|---------------------------------|
F#|---------------------------------|
C#|---------------------------------|
G#|-5-5-5php0-------------------2-3-|
C#|-5-5-------3ph/5-3-0-4-5-7-0-----|
    * *

               "Inside my head, where the world is spinning 'round..."
D#|------------------------------------------------|
A#|------------------------------------------------|
F#|-----14---12---11---7-7-----5------12-11--------|
C#|-----x----x----x----x-x-----5------------x-12ph-|
G#|-0-0-12---10---9----5-5-0-0-3-3333--------------|
C#|-0-0----0----0----0-----0-0---------------------|
    * *    *    *    *     * *   ****

               "I am begging you please, let me go away..."
D#|----------------------------------------------|
A#|----------------------------------------------|
F#|-------------------------7--7-7---------------|
C#|-------------------------x--x-x---------------|
G#|-0-5\-3--3--2--7-5-5\4-x-5--5-5-----------2-3-|
C#|-0-5\-3--3--2--7-5-5\4-x--------0-4-5-7-0-----|
    *

               "For so long before, the world was spinning 'round..."
D#|------------------------------------------------|
A#|------------------------------------------------|
F#|-----14---12---11---7-7-----5------12-11--------|
C#|-----x----x----x----x-x-----5------------x-12ph-|
G#|-0-0-12---10---9----5-5-0-0-3-3333--------------|
C#|-0-0----0----0----0-----0-0---------------------|
    * *    *    *    *     * *   ****

               "I am begging you please, let me go away..."
D#|----------------------------------------------------------|
A#|----------------------------------------------------------|
F#|--------------------------7--7-7-/19-19-19-19-19-19-19-19-|
C#|--------------------------x--x-x--x--x--x--x--x--x--x--x--|
G#|-0-5\-3-/15\-2--7-5-5\4-x-5--5-5-/17-17-17-17-17-17-17-17-|
C#|-0-5\-3------2--7-5-5\4-x---------------------------------|
    *

D#|----------------5*-|
A#|----------------5*-|
F#|----------------5*-|
C#|-------------------|
G#|-0-0---------------|
C#|-0-0---0-0--0-0----|
    * *

               "We are the victims now!"
D#|----------------------------------------|
A#|----------------------------------------|
F#|----------------------------------------|
C#|------------------5\4---------------5/7-|
G#|-0-0-0-0-0-0--0-0-x-x-0-0--0-0--0-0-x-x-|
C#|-0-0-0-0-0-0--0-0-5\4-0-0--0-0--0-0-5/7-|
    * * * * * *  * *     * *  * *  * *

               "We are the victims now!"
D#|----------------------------------------|
A#|----------------------------------------|
F#|----------------------------------------|
C#|------------------5\4-5-5--5-5--5-5-5/7-|
G#|-0-0-0-0-0-0--0-0-x-x-x-x--x-x--x-x-x-x-|
C#|-0-0-0-0-0-0--0-0-5\4-5-5--5-5--5-5-5/7-|
    * * * * * *  * *

               "'Cause we are falling apart again..."
D#|-------------------------------------------------------------|
A#|-------------------------------------------------------------|
F#|-------------------------------------------------------------|
C#|-5-5-5-5-5-5--5-5-5\4---------------5/7------------------5\4-|
G#|-x-x-x-x-x-x--x-x-x-x-0-0--0-0--0-0-x-x-0-0-0-0-0-0--0-0-x-x-|
C#|-5-5-5-5-5-5--5-5-5\4-0-0--0-0--0-0-5/7-0-0-0-0-0-0--0-0-5\4-|
                         * *  * *  * *     * * * * * *  * *

                "Tell me, how long until all of this breaks me..."
D#|---------------------------------------|
A#|---------------------------------------|
F#|---------------------------------------|
C#|---------------------------------------|
G#|-0-0--0-0--0----0-0-0--0--0-0-0-5\-5-5-|
C#|-0-0--0-0--0----0-0-0--0--0-0-0-5\-5-5-|
    * *  * *  *    * * *  *  * * *

                "'Cause I always knew that this would kill me..."
D#|--------------------------------------|
A#|--------------------------------------|
F#|-----------------------------------13-|
C#|-----------------------------------12-|
G#|-5--5---5-5-5ph/8-0-2--0--0-0--0-0-11-|
C#|-5--5---5-5-------0-2--0--0-0--0-0----|
           * *       *       * *  * *

                 "Everything that I tried to keep from losing..."
D#|-----------------------------------|
A#|-----------------------------------|
F#|------------------13---------------|
C#|------------------12-------------5-|
G#|-0-0-0-0-0-0--0-0-11-5\-5-5--5-5-x-|
C#|-0-0-0-0-0-0--0-0----5\-5-5--5-5-5-|
    * * * * * *  * *       * *  * *

                  "And now it's down, it's down..."
D#|-----------------------------|
A#|-----------------------------|
F#|-----------------------------|
C#|-----------------------------|
G#|-5-5-5-5-5-5-------------2-3-|
C#|-5-5-5-5-5-5-3-0-4-5-7-0-----|
    * * * * * *

            "Inside my head, where the world is spinning 'round..."
D#|-----------------|
A#|-----------------|
F#|-/19~------------|
C#|--x--------------|
G#|-/17~------------|
C#|-----------------|

             "Let me go away..."
D#|----------------------------------------------------------|
A#|----------------------------------------------------------|
F#|--------------------------7--7-7-/19-19-19-19-19-19-19-19-|
C#|--------------------------x--x-x--x--x--x--x--x--x--x--x--|
G#|-0-5\-3-/15\-2--7-5-5\4-x-5--5-5-/17-17-17-17-17-17-17-17-|
C#|-0-5\-3-/15\-2--7-5-5\4-x---------------------------------|
    *

             "For so long before, the world was spinning 'round..."
D#|------------------------------------------------|
A#|------------------------------------------------|
F#|-----14---12---11---7-7-----5------12-11--------|
C#|-----x----x----x----x-x-----5------------x-12ph-|
G#|-0-0-12---10---9----5-5-0-0-3-3333--------------|
C#|-0-0----0----0----0-----0-0---------------------|
    * *    *    *    *     * *   ****

             "I am begging you please, let me go away..."
D#|----------------------------------------------|
A#|----------------------------------------------|
F#|-------------------------7--7-7---------------|
C#|-------------------------x--x-x---------------|
G#|-0-5\-3--3--2--7-5-5\4-x-5--5-5-----------2-3-|
C#|-0-5\-3--3--2--7-5-5\4-x--------0-4-5-7-0-----|
    *                              * * * * * * *

             "Inside my head, where the world is spinning 'round..."
D#|------------------------------------------------|
A#|------------------------------------------------|
F#|-----14---12---11---7-7-----5------12-11--------|
C#|-----x----x----x----x-x-----5------------x-12ph-|
G#|-----12---10---9----5-5-0-0-3-3333--------------|
C#|-0-0----0----0----0-----0-0---------------------|
           *    *    *     * *   ****

             "Away! Let me go away!"
D#|---------------------------------------------------------|
A#|---------------------------------------------------------|
F#|-------------------------7--7-7-/19-19-19-19-19-19-19-19-|
C#|-------------------------x--x-x--x--x--x--x--x--x--x--x--|
G#|-3--3-3-3-3-2--7-5-5\4-x-5--5-5-/17-17-17-17-17-17-17-17-|
C#|-3--3-3-3-3-2--7-5-5\4-x---------------------------------|
       * * * *

D#|---------------5*-|
A#|---------------5*-|
F#|---------------5*-|
C#|------------------|
G#|-0-0--------------|
C#|-0-0--0-0--0-0----|
    * *

             "We are the victims now!"
D#|----------------------------------------|
A#|----------------------------------------|
F#|----------------------------------------|
C#|------------------5\4---------------5/7-|
G#|-0-0-0-0-0-0--0-0-x-x-0-0--0-0--0-0-x-x-|
C#|-0-0-0-0-0-0--0-0-5\4-0-0--0-0--0-0-5/7-|
    * * * * * *  * *     * *  * *  * *

D#|---------------------------------5*5*-|
A#|---------------------------------5*5*-|
F#|---------------------------------5*5*-|
C#|-------5php0-----------5ph/7----------|
G#|-0-0-0-------0-5php0-0-------0-0------|
C#|-0-0-0-------0-------0-------0-0------|
    * * *       *       *       * *

             "We are the victims now!"
D#|----------------------------------------|
A#|----------------------------------------|
F#|----------------------------------------|
C#|---------------5/7------------------5\4-|
G#|-0-0--0-0--0-0-x-x-0-0-0-0-0-0--0-0-x-x-|
C#|-0-0--0-0--0-0-5/7-0-0-0-0-0-0--0-0-5\4-|
    * *  * *  * *     * * * * * *  * *

D#|---------------------------------------------------|
A#|---------------------------------------------------|
F#|---------------------------------------------------|
C#|---------------5/7-------5php0-----------5ph/7-----|
G#|-0-0--0-0--0-0-x-x-0-0-0-------0-5php0-0-----------|
C#|-0-0--0-0--0-0-5/7-0-0-0-------0-------0-------0-0-|
    * *  * *  * *     * * *       *       *

Enjoy!
Добавлено: 22.08.2013
Другие материалы по этой песне:

Страница создана 06.03.2012
http://primanota.ru/element-eighty/victims-chords.htm
Привет, Гость.
Предлагаем пройти революционный курс по гитаре.
Подарок от PrimaNota.Ru, забирай!