PrimaNota.ru - самый крупный в мире бесплатный архив песенных текстов, аккордов, табулатур и нот


Element Eighty - Broken Promisses - бас-таба, видео

Регистрация Запомнить меня
Войти через:  Facebook Google Twitter Vk Yandex Mail.ru

Element Eighty - Broken Promisses - бас-таба, видео

Печатать
Просмотров: 187
                                Broken promises                                 


Element Eighty
Bass
xfdci@hotmail.com



      W                   W                   E  E  E  E  E  E  E  E   
F#||-------------------|-------------------|--------------------------|
C#||-------------------|-------------------|--------------------------|
G#||-------------------|-------------------|--------------------------|
C#||-------------------|-------------------|--0--0--0--0--0--0-----0--|


  E  E  E  E  Q    Q       E  E  E  E  E  E  E  E     E  E  E  E  Q    Q     
------------------------|--------------------------|------------------------|
------------------------|--------------------------|------------------------|
--------------3---------|--1--1--1--1--1--1-----1--|-----1--1-----5----1----|
-----0--0--0-------5----|--------------------------|-----------0------------|


  E  E  E  E  E  E  E  E     E  E  E  E  Q    Q       E  E  E  E  E  E  E  E   
--------------------------|------------------------|--------------------------|
--------------------------|------------------------|--------------------------|
--------------------------|--------------3---------|--1--1--1--1--1--1-----0--|
--0--0--0--0--0--0-----0--|-----0--0--0-------5----|--------------------------|


  W                   E  E  E  E  E  E  E  E     E  E  E  E  E  E  E  E   
-------------------|--------------------------|--------------------------|
-------------------|--------------------------|--------------------------|
--L----------------|--------------------------|--------------3--3--------|
-------------------|--0--0--0--0--0--0-----0--|-----0--0--0--------5--5--|


  E  E  E  E  E  E  E  E     E  E  E  E  E  E  E  E   
--------------------------|--------------------------|
--------------------------|--------------------------|
--------------------------|--------------5--5--1--1--|
--8--8--8--8--8--8-----8--|-----8--8--0--------------|


  E  E  E  E  E  E  E  E     E  E  E  E  E  E  E  E   
--------------------------|--------------------------|
--------------------------|--------------------------|
--------------------------|--------------3--3--------|
--0--0--0--0--0--0-----0--|-----0--0--0--------5--5--|


  E  E  E  E  E  E  E  E     E  E  E  E  E  E  E  E   
--------------------------|--------------------------|
--------------------------|--------------------------|
--------------------------|--------------------------|
--8--8--8--8--8--8--8--8--|--7--7--7--0--3--3--1--3--|


  E  E  E  E  E  E  E  E     E  E  E  E  Q    Q       E  E  E  E  E  E  E  E   
--------------------------|------------------------|--------------------------|
--------------------------|------------------------|--------------------------|
--------------------------|--------------3---------|--1--1--1--1--1--1-----1--|
--0--0--0--0--0--0-----0--|-----0--0--0-------5----|--------------------------|


  E  E  E  E  Q    Q       E  E  E  E  E  E  E  E     E  E  E  E  Q    Q     
------------------------|--------------------------|------------------------|
--------------0---------|--------------------------|------------------------|
-----1--1----------1----|--------------------------|--------------3---------|
-----------0------------|--0--0--0--0--0--0-----0--|-----0--0--0-------5----|


  E  E  E  E  E  E  E  E     H        H           E  E  E  E  E  E  E  E   
--------------------------|--------------------|--------------------------|
--------------------------|--------------------|--------------------------|
--1--1--1--1--1--1--1--0--|--L-----------------|--------------------------|
--------------------------|--------------------|--0--0--0--0--0--0-----0--|


  E  E  E  E  Q    Q       E  E  E  E  E  E  E  E     E  E  E  E  Q    Q     
------------------------|--------------------------|------------------------|
------------------------|--------------------------|------------------------|
--------------3---------|--1--1--1--1--1--1-----1--|-----1--1-----5----1----|
-----0--0--0-------5----|--------------------------|-----------0------------|


  E  E  E  E  E  E  E  E     E  E  E  E  Q    Q       E  E  E  E  E  E  E  E   
--------------------------|------------------------|--------------------------|
--------------------------|------------------------|--------------------------|
--------------------------|--------------3---------|--1--1--1--1--1--1--1--1--|
--0--0--0--0--0--0-----0--|-----0--0--0-------5----|--------------------------|


  E  E  E  E  E  E  E  E     E  E  E  E  E  E  E  E     E  E  E  E  Q    Q     
--------------------------|--------------------------|------------------------|
--------------------------|--------------------------|------------------------|
--0--0--0--0--------------|--------------------------|--------------3---------|
--------------3--3--1--3--|--0--0--0--0--0--0-----0--|-----0--0--0-------5----|


  E  E  E  E  E  E  E  E     E  E  E  E  Q    Q       E  E  E  E  E  E  E  E   
--------------------------|------------------------|--------------------------|
--------------------------|------------------------|--------------------------|
--1--1--1--1--1--1-----1--|-----1--1-----5----1----|--------------------------|
--------------------------|-----------0------------|--0--0--0--0--0--0-----0--|


  E  E  E  E  Q    Q       E  E  E  E  E  E  E  E     W                 
------------------------|--------------------------|-------------------|
------------------------|--------------------------|-------------------|
--------------3---------|--1--1--1--1--1--1-----0--|--L----------------|
-----0--0--0-------5----|--------------------------|-------------------|


  E  E  E  E  E  E  E  E     E  E  E  E  E  E  E  E   
--------------------------|--------------------------|
--------------------------|--------------------------|
--------------------------|--------------------------|
--0--0--0--0--0--0-----0--|-----0--0--0--0--0--0--0--|


  E  E  E  E  E  E  E  E     E  E  E  E  E  E  E  E   
--------------------------|--------------------------|
--------------------------|--------------------------|
--------------------------|--------------3--3--------|
--0--0--0--0--0--0-----0--|-----0--0--0--------5--5--|


  E  E  E  E  E  E  E  E     E  E  E  E  E  E  E  E     W                 
--------------------------|--------------------------|-------------------|
--------------------------|--------------------------|-------------------|
--------------------------|--------------5--5--1--1--|-------------------|
--8--8--8--8--8--8-----8--|-----8--8--0--------------|--0----------------|


  H        Q    Q       W                   Q    E  E  E  E  E  E   
---------------------|-------------------|-------------------------|
---------------------|-------------------|-------------------------|
-----------3---------|-------------------|-------------------------|
--L-------------5----|--8----------------|--7----L--0--3--3--1--3--|


  E  E  E  E  E  E  E  E     E  E  E  E  Q    Q       E  E  E  E  E  E  E  E   
--------------------------|------------------------|--------------------------|
--------------------------|------------------------|--------------------------|
--------------------------|--------------3---------|--1--1--1--1--1--1-----1--|
--0--0--0--0--0--0-----0--|-----0--0--0-------5----|--------------------------|


  E  E  E  E  Q    Q       E  E  E  E  E  E  E  E     E  E  E  E  Q    Q     
------------------------|--------------------------|------------------------|
--------------0---------|--------------------------|------------------------|
-----1--1----------1----|--------------------------|--------------3---------|
-----------0------------|--0--0--0--0--0--0-----0--|-----0--0--0-------5----|


  E  E  E  E  E  E  E  E     H        H           E  E  E  E  E  E  E  E   
--------------------------|--------------------|--------------------------|
--------------------------|--------------------|--------------------------|
--1--1--1--1--1--1--1--0--|--L-----------------|--------------------------|
--------------------------|--------------------|--0--0--0--0--0--0-----0--|


  E  E  E  E  Q    Q       E  E  E  E  E  E  E  E     E  E  E  E  Q    Q     
------------------------|--------------------------|------------------------|
------------------------|--------------------------|------------------------|
--------------3---------|--1--1--1--1--1--1-----1--|-----1--1-----5----1----|
-----0--0--0-------5----|--------------------------|-----------0------------|


  E  E  E  E  E  E  E  E     E  E  E  E  Q    Q       E  E  E  E  E  E  E  E   
--------------------------|------------------------|--------------------------|
--------------------------|------------------------|--------------------------|
--------------------------|--------------3---------|--1--1--1--1--1--1--1--1--|
--0--0--0--0--0--0-----0--|-----0--0--0-------5----|--------------------------|


  E  E  E  E  E  E  E  E     E  E  E  E  E  E  E  E     E  E  E  E  Q    Q     
--------------------------|--------------------------|------------------------|
--------------------------|--------------------------|------------------------|
--0--0--0--0--------------|--------------------------|--------------3---------|
--------------3--3--1--3--|--0--0--0--0--0--0-----0--|-----0--0--0-------5----|


  E  E  E  E  E  E  E  E     E  E  E  E  Q    Q       E  E  E  E  E  E  E  E   
--------------------------|------------------------|--------------------------|
--------------------------|------------------------|--------------------------|
--1--1--1--1--1--1-----1--|-----1--1-----5----1----|--------------------------|
--------------------------|-----------0------------|--0--0--0--0--0--0-----0--|


  E  E  E  E  Q    Q       E  E  E  E  E  E  E  E     W                 
------------------------|--------------------------|-------------------|
------------------------|--------------------------|-------------------|
--------------3---------|--1--1--1--1--1--1-----0--|--L----------------|
-----0--0--0-------5----|--------------------------|-------------------|


  E  E  E  E  E  E  E  E     E  E  E  E  Q    Q       E  E  E  E  E  E  E  E   
--------------------------|------------------------|--------------------------|
--------------------------|------------------------|--------------------------|
--------------------------|--------------3---------|--1--1--1--1--1--1-----1--|
--0--0--0--0--0--0-----0--|-----0--0--0-------5----|--------------------------|


  E  E  E  E  Q    Q       E  E  E  E  E  E  E  E     E  E  E  E  Q    Q     
------------------------|--------------------------|------------------------|
--------------0---------|--------------------------|------------------------|
-----1--1----------1----|--------------------------|--------------3---------|
-----------0------------|--0--0--0--0--0--0-----0--|-----0--0--0-------5----|


  E  E  E  E  E  E  E  E     E  E  E  E  H           W                 
--------------------------|-----------------------|-------------------|
--------------------------|-----------------------|-------------------|
--1--1--1--1--1--1-----1--|-----1--1--0--3--------|-------------------|
--------------------------|-----------------------|--0----------------|


  W                   W                   W                   W                 
-------------------|-------------------|-------------------|-------------------|
-------------------|-------------------|-------------------|-------------------|
-------------------|-------------------|-------------------|-------------------|
--L----------------|--L----------------|--L----------------|-------------------|


  W                   W                   W                 
-------------------|-------------------|-------------------|
-------------------|-------------------|-------------------|
-------------------|-------------------|-------------------|
-------------------|-------------------|-------------------|


  E  E  E  E  E  E  E  E     E  E  E  E  E  E  E  E   
--------------------------|--------------------------|
--------------------------|--------------------------|
--------------------------|--------------3--3--------|
--0--0--0--0--0--0-----0--|-----0--0--0--------5--5--|


  E  E  E  E  E  E  E  E     E  E  E  E  E  E  E  E   
--------------------------|--------------------------|
--------------------------|--------------------------|
--------------------------|--------------5--5--1--1--|
--8--8--8--8--8--8-----8--|-----8--8--0--------------|


  E  E  E  E  E  E  E  E     E  E  E  E  E  E  E  E   
--------------------------|--------------------------|
--------------------------|--------------------------|
--------------------------|--------------3--3--------|
--0--0--0--0--0--0-----0--|-----0--0--0--------5--5--|


  E  E  E  E  E  E  E  E     W                   E  E  E  E  E  E  E  E   
--------------------------|-------------------|--------------------------|
--------------------------|-------------------|--------------------------|
--------------------------|-------------------|--------------------------|
--8--8--8--8--8--8--8--7--|-------------------|--0--0--0--0--0--0-----0--|


  H        Q    Q       E  E  E  E  E  E  E  E     H        Q    Q     
---------------------|--------------------------|---------------------|
---------------------|--------------------------|---------------------|
-----------3---------|--------------------------|-----------5----1----|
----------------5----|--8--8--8--8--8--8-----8--|---------------------|


  E  E  E  E  E  E  E  E     H        Q    Q       E  E  E  E  E  E  E  E   
--------------------------|---------------------|--------------------------|
--------------------------|---------------------|--------------------------|
--------------------------|-----------3---------|--------------------------|
--0--0--0--0--0--0-----0--|----------------5----|--8--8--8--8--8--8--8--7--|


  H        H           W                   W                 
--------------------|-------------------|-------------------|
--------------------|-------------------|-------------------|
--------------------|-------------------|-------------------|
--L-----------------|-------------------|-------------------|


  W                   W                   E  E  E  E  E  E  E  E   
-------------------|-------------------|--------------------------|
-------------------|-------------------|--------------------------|
-------------------|-------------------|--------------------------|
-------------------|-------------------|--0--0--0--0--0--0-----0--|


  E  E  E  E  E  E  E  E     E  E  E  E  E  E  E  E   
--------------------------|--------------------------|
--------------------------|--------------------------|
--------------3--3--------|--------------------------|
-----0--0--0--------5--5--|--8--8--8--8--8--8--8--8--|


  E  E  E  E  E  E  E  E     E  E  E  E  E  E  E  E     E  E  E  E  Q    Q     
--------------------------|--------------------------|------------------------|
--------------------------|--------------------------|------------------------|
--------------------------|--------------------------|--------------3---------|
--7--7--7--7--7--7--7--7--|--0--0--0--0--0--0-----0--|-----0--0--0-------5----|


  E  E  E  E  E  E  E  E     E  E  E  E  Q    Q       E  E  E  E  E  E  E  E   
--------------------------|------------------------|--------------------------|
--------------------------|------------------------|--------------------------|
--1--1--1--1--1--1-----1--|-----1--1-----5----1----|--------------------------|
--------------------------|-----------0------------|--0--0--0--0--0--0-----0--|


  E  E  E  E  Q    Q       E  E  E  E  E  E  E  E     E  E  E  E  E  E  E  E   
------------------------|--------------------------|--------------------------|
------------------------|--------------------------|--------------------------|
--------------3---------|--1--1--1--1--1--1--1--1--|--0--0--0--0--------------|
-----0--0--0-------5----|--------------------------|--------------3--3--1--3--|


  E  E  E  E  E  E  E  E     E  E  E  E  Q    Q       E  E  E  E  E  E  E  E   
--------------------------|------------------------|--------------------------|
--------------------------|------------------------|--------------------------|
--------------------------|--------------3---------|--1--1--1--1--1--1-----1--|
--0--0--0--0--0--0-----0--|-----0--0--0-------5----|--------------------------|


  E  E  E  E  Q    Q       E  E  E  E  E  E  E  E     E  E  E  E  Q    Q     
------------------------|--------------------------|------------------------|
------------------------|--------------------------|------------------------|
-----1--1-----5----1----|--------------------------|--------------3---------|
-----------0------------|--0--0--0--0--0--0-----0--|-----0--0--0-------5----|


  E  E  E  E  E  E  E  E     E  E  E  E  E  E  E  E   
--------------------------|--------------------------|
--------------------------|--------------------------|
--1--1--1--1--1--1--1--1--|--0--0--0--0--------------|
--------------------------|--------------3--3--1--3--|


  E  E  E  E  E  E  E  E     E  E  E  E  E  E  E  E   
--------------------------|--------------------------|
--------------------------|--------------------------|
--------------------------|--------------3--3--------|
--0--0--0--0--0--0--0--0--|--0--0--0--0--------5--5--|


  E  E  E  E  E  E  E  E     E  E  E  E  E  E  E  E   
--------------------------|--------------------------|
--------------------------|--------------------------|
--1--1--1--1--1--1--1--1--|--1--1--1-----5--5--1--1--|
--------------------------|-----------0--------------|


  E  E  E  E  E  E  E  E     E  E  E  E  E  E  E  E   
--------------------------|--------------------------|
--------------------------|--------------------------|
--5--5--5--5--5--5--5--5--|--5--5--5--0--3--3--------|
--------------------------|--------------------5--5--|


  E  E  E  E  E  E  E  E     E  E  E  E  E  E  E  E     E  E  E  E  E  E  Q     
--------------------------|--------------------------|-------------------------|
--------------------------|--------------------------|-------------------------|
--1--1--1--1--1--1--1--1--|--0--0--0--0--0--0--0--0--|-------------------------|
--------------------------|--------------------------|--0--0--0--0--0--0-------|


  W                  
-------------------||
-------------------||
-------------------||
-------------------||




Duration Legend
---------------
W - whole
H - half
Q - quarter
E - 8th
S - 16th
T - 32nd
X - 64th
. - note dotted
|-n-|  - n-tuplets


Tablature Legend
----------------
L - tied note
x - dead note
g - grace note
(n) - ghost note
> - accentuded note
NH - natural harmonic
AH - artificial harmonic
TH - tapped harmonic
SH - semi harmonic
PH - pitch harmonic
h - hammer on
p - pull off
b - bend
br - bendRelease
pb - preBend
pbr - preBendRelease
brb - bendReleaseBend
\n/ - tremolo bar dip
\n - tremolo bar dive
-/n - tremolo bar Release up
/n\ - tremolo bar inverted dip
/n - tremolo bar return
-\n - tremolo bar Release down
S - shift slide
s - legato slide
/ -  slide into from below or out of upwards
\ -  slide into from above or out of downwards
~ - vibrato
W - wide vibrato
tr - trill
TP - tremolo picking
T - tapping
S - slap
P - pop
< - fade in
^ - brush up
v - brush down
Добавлено: 20.03.2012
Другие материалы по этой песне:
  • Аккорды и текст

Страница создана 20.03.2012
http://primanota.ru/element-eighty/broken-promisses-chords.htm
Привет, Гость.
Предлагаем пройти революционный курс по гитаре.
Подарок от PrimaNota.Ru, забирай!