PrimaNota.ru - самый крупный в мире бесплатный архив песенных текстов, аккордов, табулатур и нот


Elemeno P - Nirvana - таба, видео

Регистрация Запомнить меня
Войти через:  Facebook Google Twitter Vk Yandex Mail.ru

Elemeno P - Nirvana - таба, видео

Печатать
Просмотров: 146
Band:Elemeno P
Song:Nirvana

Hey this is Matt Minto bringing you another shizzle tab!



Legend:
/=Slide
*=Palm Mute
p=Pull-Off
x=Dead Note
Intro:

Riff A
e|-------------------------------------|
B|-------------------------------------|
G|-------------5-5-10-10-10-9-9-9-7-7--|
D|-7-7-7-5-5-5-5-5-10-10-10-9-9-9-7-7--|
A|-7-7-7-5-5-5-3-3-8--8--8--7-7-7-5-5--|
E|-5-5-5-3-3-3-------------------------|

Riff A(continued)
e|------------------------------------|
B|------------------------------------|
G|-5-5-5-5-10-10-10-10-5-5-5-5-10-12--|
D|-5-5-5-5-10-10-10-10-5-5-5-5-10-12--|
A|-3-3-3-3-8--8--8--8--3-3-3-3-8--10--|
E|------------------------------------|

Chorus:

Riff B
e|---------------------------------------------------------|
B|---------------------------------------------------------|
G|-----------------------5-5-5-5-10-10-10-10-5-5-5-5-10-12-|
D|-7-7-7------3-3-3------5-5-5-5-10-10-10-10-5-5-5-5-10-12-|
A|-7-7-7-rest-3-3-3-rest-3-3-3-3-8--8--8--8--3-3-3-3-8--10-|
E|-5-5-5------1-1-1----------------------------------------|

Repeat Riff B a couple of times.
Ummmmm...I don't know if this next bit's the Verse or the Bridge or what, but who can tell.

Verse/Bridge:

Riff C
e|---------------------------------------------|
B|---------------------------------------------|
G|-55555555------------------------------------|  
D|-55555555-555555555-77777777-----------------| 
A|-33333333-555555555-77777777-----3/2-----3/2-|
E|----------333333333-55555555-111-----111-----|
                               ***     ***
Repeat a few times then:

e|--------------------------------------|
B|--------------------------------------|
G|-55555555-1010101010101010----------5-| Hold the last chord.
D|-55555555-1010101010101010-55555555-5-|
A|-33333333-8-8-8-8-8-8-8-8--55555555-3-|
E|---------------------------33333333---|
                             ********

Guitar One plays Riff B for the next part, while gUitar Two plays Riff D.

Solo:

Riff D
e|--------------------------8-8-10p8-8-8-10p8-8-8-12-13-12-10-12-|
B|---------------8p6-5-6-5---------------------------------------|
G|-5-5-4-5-7-5-5-------------------------------------------------|
D|---------------------------------------------------------------|
A|---------------------------------------------------------------|
E|---------------------------------------------------------------|

Riff D(continued)
e|-8-8-12-13-12-10-12-8-8-12-13-12-10-12-------------|
B|---------------------------------------5-7-9-10-12-|
G|---------------------------------------------------|
D|---------------------------------------------------|
A|---------------------------------------------------|
E|---------------------------------------------------|

Just repeat Riff B twice and then play this:

Outro:

Riff E:
e|---------------------|
B|---------------------|
G|---------------------|
D|-7-7-7-5-5-5-xx-3333-|
A|-7-7-7-5-5-5-xx-3333-|
E|-5-5-5-3-3-3-xx-1111-|


Thanks,
       Matt Minto
Добавлено: 24.04.2012
Другие материалы по этой песне:
  • Аккорды и текст

Страница создана 24.04.2012
http://primanota.ru/elemeno-p/nirvana-chords.htm
Привет, Гость.
Предлагаем пройти революционный курс по гитаре.
Подарок от PrimaNota.Ru, забирай!