PrimaNota.ru - самый крупный в мире бесплатный архив песенных текстов, аккордов, табулатур и нот


Elegants - Getting Dizzy - бас-таба, видео

Регистрация Запомнить меня
Войти через:  Facebook Google Twitter Vk Yandex Mail.ru

Elegants - Getting Dizzy - бас-таба, видео

Печатать
Просмотров: 75
Уроки эстрадного вокала в Санкт-Петербурге
Tabbed by: 6METAL6BASSIST6
E-mail: petergriffinav@gmail.com

Tuning: EADG

0:07

G|------------------5-----8-----5-----------------------------------------------------------------|
D|------5-----8-----------------------8-----5-----------------------5-----8-----5-----------------| x2
A|6-----------------------------------------------------5-----8-----------------------8-----5-----|
E|------------------------------------------------6-----------------------------------------------|

G|------------------7-----10----7-----------------------------------7-----10----7-----------------|
D|------7-----10----------------------10----7-----------7-----10----------------------10----7-----|
A|8-----------------------------------------------8-----------------------------------------------|
E|------------------------------------------------------------------------------------------------|

G|------------------------------------------------------------------------------------------------|
D|------------------5-----8-----5-----------------------------------5-----8-----5-----------------|
A|------5-----8-----------------------8-----5-----------5-----8-----------------------8-----5-----|
E|6-----------------------------------------------6-----------------------------------------------|

G|------------------5-----8-----5-----------------------------------------------------------------|
D|------5-----8-----------------------8-----5-----------------------5-----8-----5-----------------|
A|6-----------------------------------------------------5-----8-----------------------8-----5-----|
E|------------------------------------------------6-----------------------------------------------|

G|------------------------------------------------------------------------------------------------|
D|------5-----8-----5-----------------------------------------------5-----8-----5-----------------|
A|6-----------------------8-----------------------------5-----8------------------------8-----5----|
E|------------------------------------------------6-----------------------------------------------|

Repeat from the 0:07



0:57

G|------------------------------------------------------------------------------------------------|.
D|------------------5-----8-----5-----------------------------------5-----8-----5-----------------|.
A|------5-----8-----------------------8-----5-----------5-----8-----------------------8-----5-----|.
E|6-----------------------------------------------6-----------------------------------------------|.
                                                                                                   .
G|------------------5-----8-----5-----------------------------------------------------------------|.
D|------5-----8-----------------------8-----5-----------------------5-----8-----5-----------------|. x2
A|6-----------------------------------------------------5-----8-----------------------8-----5-----|.
E|------------------------------------------------6-----------------------------------------------|.
                                                                                                   .
G|------------------------------------------------------------------------------------------------|.
D|------7-----10----7-----------7-----10----7-----8-----5-----------------8-----5-----------------|.
A|8-----------------------8-----------------------------------8-----5-----------------8-----5-----|.
E|------------------------------------------------------------------------------------------------|.

1:22

G|------------------------------------------------------------------------------------------------|
D|------------------5-----8-----5-----------------------------------5-----8-----5-----------------|
A|------5-----8-----------------------8-----5-----------5-----8-----------------------8-----5-----|
E|6-----------------------------------------------6-----------------------------------------------|

G|------------------5-----8-----5-----------------------------------------------------------------|
D|------5-----8-----------------------8-----5-----------------------5-----8-----5-----------------|
A|6-----------------------------------------------------5-----8-----------------------8-----5-----|
E|------------------------------------------------6-----------------------------------------------|

G|------------------7-----10----7-----------------------------------7-----10----7-----------------|
D|------7-----10----------------------10----7-----------7-----10----------------------10----7-----|
A|8-----------------------------------------------8-----------------------------------------------|
E|------------------------------------------------------------------------------------------------|

G|------------------------------------------------------------------------------------------------|
D|------------------5-----8-----5-----------------------------------5-----8-----5-----------------|
A|------5-----8-----------------------8-----5-----------5-----8-----------------------8-----5-----|
E|6-----------------------------------------------6-----------------------------------------------|

G|------------------5-----8-----5-----------------------------------------------------------------|
D|------5-----8-----------------------8-----5-----------------------5-----8-----5-----------------|
A|6-----------------------------------------------------5-----8-----------------------8-----5-----|
E|------------------------------------------------6-----------------------------------------------|

G|------------------------------------------------------------------------------------------------|
D|------5-----8-----5-----------------------------------------------5-----8-----5-----------------|
A|6-----------------------8-----------------------------5-----8------------------------8-----5----|
E|------------------------------------------------6-----------------------------------------------|

1:48

G|------------------------------------------------------------------------------------------------|
D|------------------5-----8-----5-----------------------------------5-----8-----5-----------------|
A|------5-----8-----------------------8-----5-----------5-----8-----------------------8-----5-----|
E|6-----------------------------------------------6-----------------------------------------------|

G|------------------5-----8-----5-----------------------------------------------------------------|
D|------5-----8-----------------------8-----5-----------------------5-----8-----5-----------------|
A|6-----------------------------------------------------5-----8-----------------------8-----5-----|
E|------------------------------------------------6-----------------------------------------------|

G|------------------7-----10----7-----------------------------------------------------------------|
D|------7-----10----------------------10----7-----------------------5-----8-----5-----------------|
A|8-----------------------------------------------------5-----8-----------------------8-----5-----|
E|------------------------------------------------6-----------------------------------------------|

G|------------------------------------------------------------------------------------------------|
D|------------------5-----8-----5-----------------------------------5-----8-----5-----------------|
A|------5-----8-----------------------8-----5-----------5-----8-----------------------8-----5-----|
E|6-----------------------------------------------6-----------------------------------------------|

G|------------------5-----8-----5-----------------------------------------------------------------|
D|------5-----8-----------------------8-----5-----------------------5-----8-----5-----------------| fades
A|6-----------------------------------------------------5-----8-----------------------8-----5-----| out here.
E|------------------------------------------------6-----------------------------------------------|


Добавлено: 23.07.2015
Вам также может быть интересно:
Другие материалы по этой песне:
  • Аккорды и текст

Страница создана 23.07.2015
http://primanota.ru/elegants/getting-dizzy-chords.htm
Привет, Гость.
Предлагаем пройти революционный курс по гитаре.
Подарок от PrimaNota.Ru, забирай!