PrimaNota.ru - самый крупный в мире бесплатный архив песенных текстов, аккордов, табулатур и нот


Elefant - Tonight Lets Dance - текст песни, бас-таба, видео

Регистрация Запомнить меня
Войти через:  Facebook Google Twitter Vk Yandex Mail.ru

Elefant - Tonight Lets Dance - текст песни, бас-таба, видео

Печатать
Просмотров: 127
Tonight Let's dance -  Elefant.

G------------------------------------------------------------!
D----------------2-2-----------------7-7--7------------------!
A--3-3--3-3-3--3--------------5-5--5--------5-5--5-5-7-5-----! x6
E--------------------0-0-0--0--------------------------------!

G------------------------------------------------------------!
D----------------2-2-----------------7-7--7------------------!
A--3-3--3-3-3--3--------------5-5--5-------------------------! x2
E--------------------0-0-0--0---------------3-3--3-3-3-5-5---!

G------------------------------------------------!
D----------------5-5--5-5-5--5-------------------!
A--5-5--5-5-5--5---------------------------------! x1
E------------------------------3-3--3-3-3-5-5----!

G------------------------------------------------------------!
D----------------2-2-----------------7-7--7------------------!
A--3-3--3-3-3--3--------------5-5--5--------5-5--5-5-7-5-----! x7
E--------------------0-0-0--0--------------------------------!

G------------------------------------------------------------!
D----------------2-2-----------------7-7--7------------------!
A--3-3--3-3-3--3--------------5-5--5-------------------------! x2
E--------------------0-0-0--0---------------3-3--3-3-3-5-5---!

G------------------------------------------------!
D----------------5-5--5-5-5--5-------------------!
A--5-5--5-5-5--5---------------------------------! x1
E------------------------------3-3--3-3-3-5-5----!

G------------------------------------------------------------!
D----------------2-2-----------------7-7--7------------------!
A--3-3--3-3-3--3--------------5-5--5--------5-5--5-5-7-5-----! x1
E--------------------0-0-0--0--------------------------------!

G------------------------------------------------------------!
D----------------2-2-----------------7-7--7------------------!
A--3-3--3-3-3--3--------------5-5--5-------------------------! x1
E--------------------0-0-0--0---------------3-3--3-3-3-5-5---!

G------------------------------------------------!
D----------------5-5--5-5-5--5-------------------!
A--5-5--5-5-5--5---------------------------------! x1
E------------------------------3-3--3-3-3-5-5----!

G------------------------------------------------------------!
D----------------2-2-----------------7-7--7------------------!
A--3-3--3-3-3--3--------------5-5--5--------5-5--5-5-7-5-----! x4
E--------------------0-0-0--0--------------------------------!
Добавлено: 09.05.2012
Вам также может быть интересно:
Другие материалы по этой песне:
  • Аккорды и текст

Страница создана 09.05.2012
http://primanota.ru/elefant/tonight-lets-dance-chords.htm
Привет, Гость.
Предлагаем пройти революционный курс по гитаре.
Подарок от PrimaNota.Ru, забирай!