PrimaNota.ru - самый крупный в мире бесплатный архив песенных текстов, аккордов, табулатур и нот


Electro Knut And The True Belivers - Jim The Bum - аккорды и текст

Регистрация Запомнить меня
Войти через:  Facebook Google Twitter Vk Yandex Mail.ru

Electro Knut And The True Belivers - Jim The Bum - аккорды и текст

Печатать
Просмотров: 74
Jim The Bum
Electro Knut And The True Belivers
Author: Elektro Knut And The True Belivers (EKTB)

Song: Jim the bum

Tabbed by: Magnus Kvalheim

 

 

Intro (Bass) x2

 

G|-0-12-0-12-0-0-12-0-12----12----12--------12----12-------------|

D|-----------------------10----10----10--10----10----------------|

A|---------------------------------------------------------------|

E|---------------------------------------------------------------|

 

G|----12----12--------12----12----12----12-------12----12--------|

D|-12----12----12--12----12----10----10----10-10----10-----------|

A|---------------------------------------------------------------|

E|---------------------------------------------------------------|

 

Verse 1

 

G5              C5

His name was Jim, he was a bum

D5

He thought ...

     C5                      G5    G5 C5 D5 C5 G5

But in real life he was just scum 

 

 

Verse 2

 

G5                    C5

He lived ...

D5                             C5

He quit school ...

G5          G5 C5 D5 C5 G5

Jim the bum

 

 

Chorus

 

e5                               G5

Living in the streets ...

D5                         C5

Now he lives in a ...

D5                      C5                            G5     G5 C5 D5 C5
G5

Take a piece of the ...

 

 

Verse 3

 

G5                C5

He grew up ...

D5

He lost his m...

   C5                        G5     G5 C5 D5 C5 G5

And, now the alcohole is his curse.

 

Verse 4

 

G5                C5              

He was a ...

D5              C5

But, ...

              G5    G5 C5 D5 C5 G5

and now the king is dead!

 

Chorus

 

Intro (Bass) x2

 

Guitar solo (Not posted)

 

Chorus


     
Добавлено: 01.09.2013
Другие материалы по этой песне:
  • Аккорды и текст

Страница создана 01.09.2013
http://primanota.ru/electro-knut-and-the-true-belivers/jim-the-bum-chords.htm
Привет, Гость.
Предлагаем пройти революционный курс по гитаре.
Подарок от PrimaNota.Ru, забирай!