PrimaNota.ru - самый крупный в мире бесплатный архив песенных текстов, аккордов, табулатур и нот


Electrics - Get To Heaven - таба, видео

Регистрация Запомнить меня
Войти через:  Facebook Google Twitter Vk Yandex Mail.ru

Electrics - Get To Heaven - таба, видео

Печатать
Просмотров: 85
		   GET TO HEAVEN
by the Electrics
Copyright 1997 Sarabellum
tabbed by Josh Smith (stradivarius813@juno.com)
solo tabbed by Jon King (augosaid.u.t.s.j@juno.com)

               D                                       
There's John my good old buddy,
                                   A
you mean the world to me.
                                          
If it wasn't for your wisdom
                               D
I don't know where I'd be.
                                                             
And even though we're miles apart,
                          G
remember what I said


CHORUS: 


           D                                        
Get to heaven half an hour before
        A                             D
the devil knows you're dead.
    G                                            
A fine man that you are indeed
         D                              
I've never met your match.
        Bm                                 
The seconds keep on ticking
            A
by the big hand on my watch
        D                                        
and you won't last forever here
                                 G
when all is done and said,
            D                                        
get to heaven half an hour before
        A                         D
the devil knows you're dead.


(Verse 2 -- same as above)
To all you great musicians
who play the mean guitars
who would have thought
ten years ago
that we would have come this far
I've loved making the music 
I've loved the way you played (chorus)


(Verse 3 -- same)
To all you different people
we've met from time to time.
For everthing you've given us
the rhythm and the rhyme.
For letting us invade your homes
and giving us a bed...  (chorus)



Have fun, this song is really cool. Please email me with questions or
comments. 


|-------------------------------------------------------------|
|-------------------------------------6-6---------------------|
|-----------------------3--3-5-5p3-/7--7-5--------------------|
|------0-1-1-3b4r3-1-/5--5------------------8h10p8---------8--|
|--1-3---------------------------------------------11p10-11---|
|-------------------------------------------------------------|

|-----6------------6----------------------------------------|
|--/8---\6-4-8--/8---\6-4-----------------------------------|
|-------------------------5--2-2-2-2-2-4-2------------------|
|------------------------------------------5-4-2h4p2--------|
|----------------------------------------------------5-4-5--|
|-----------------------------------------------------------|     
Добавлено: 23.11.2013
Вам также может быть интересно:
Другие материалы по этой песне:
  • Аккорды и текст

Страница создана 23.11.2013
http://primanota.ru/electrics/get-to-heaven-chords.htm
Привет, Гость.
Предлагаем пройти революционный курс по гитаре.
Подарок от PrimaNota.Ru, забирай!