PrimaNota.ru - самый крупный в мире бесплатный архив песенных текстов, аккордов, табулатур и нот


Electric Wizard - We Live - текст песни, таба, видео

Регистрация Запомнить меня
Войти через:  Facebook Google Twitter Vk Yandex Mail.ru

Electric Wizard - We Live - текст песни, таба, видео

Печатать
Просмотров: 243
We Live
Electric Wizard
Tuning: C Standard (C F A# D# G C)
for two guitars, and a bass, all with distortion, downtuning, fuzz, dopesmoke and etc.
this is an approximation of what is played. improvise on the riffs where applicable. 
crushingly.

intro sample:
Something must have forced him over... did you get anything out of the witnesses?
Yes sir, exactly the same story out of all of them: two motorcyclists, jabbing at his 
with a knife.
Any identification?
Yeah, the living dead again.

|-----------||--------------------||
|-----------||--------------------||
|-----------||--------------------||
|--8-4-8-7--||--------------------||
|--8-4-8-7--||--------------------||
|--6-2-6-5--||-5-5-55p4-5-6-2-6-5-||
Verse 1:                        x4
||----------------------------||
||----------------------------||
||----------------------------||
||--8-4-8-7--7-7-77-77p6-7-8--||
||--8-4-8-7--7-7-77-77p6-7-8--|| x4
||--6-2-6-5--5-5-55-55p4-5-6--||
Fist cracks the earth
Coffin womb for rebirth
Betrayed by the living
They soon shall be giving
Chorus:
||-------------------------||
||-------------------------||
||-------------------------||
||--8-4-8-7--------5---7b--||
||--8-4-8-7--7-5-----8-----|| x4
||--6-2-6-5------8---------||
We live...
Not dead...
We live,
We kill

Verse 2: riff x4
Can't fucking die
Can't fucking win
Got something to prove
Got nothing to lose...

Chorus:
We live...
Not dead...
We live,
We kill
x4 chorus riff, Gtr2 plays the melody higher up

||-----------||
||-----------||
||-----------||
||--8-4-8-7--||
||--8-4-8-7--|| feedback
||--6-2-6-5--|| x3

Verse 3: riff x4
You hoped I was dead
But I'm born again,
I shall be avenged,
Cold blooded revenge.

||-----------||
||-----------||
||-----------||
||--8-4-8-7--||
||--8-4-8-7--|| feedback and noise
||--6-2-6-5--|| x4

||---------------------------------------------------------||
||---------------------------------------------------------||
||---------------------------------------------------------||
||--7-7-5-5-7-710-910-9-13-13-13-12-12-13-13-12-121010s7-7-||
||--7-7-5-5-7-710-910-9-13-13-13-12-12-13-13-12-121010s7-7-|| x2
||--5-5-3-3-5-5-8-7-8-7-11-11-11-10-10-11-11-10-10-8-8s5-5-||

||--------------------------||
||--------------------------||
||--------------------------||
||--------------------------||
||--0-0-0000---------0---0--|| x4
||----------4-5-4-1----1----||

||--------------------------||
||--------------------------||
||--2-----------------------||
||--2-------6-----3---------||
||--0-------6-----3---------|| x4
||----------4-----1---------|| x4 with Gtr2:
|
||--------------------------||
||--------------------------||
||--------------------------||
||--------------------------||
||--0-0-0000---------0---0--||
||----------4-5-4-1----1----||

|----------------------------|
|----------------------------|
|----------------------------|
|--8-4-8-7--7-7-77-77p6-7-8--|
|--8-4-8-7--7-7-77-77p6-7-8--|
|--6-2-6-5--5-5-55-55p4-5-6--|

||-----------||
||-----------||
||-----------||
||--8-4-8-7--||
||--8-4-8-7--|| feedback
||--6-2-6-5--|| x26 or so
Добавлено: 07.06.2012
Другие материалы по этой песне:
  • Аккорды и текст

Страница создана 07.06.2012
http://primanota.ru/electric-wizard/we-live-chords.htm
Привет, Гость.
Предлагаем пройти революционный курс по гитаре.
Подарок от PrimaNota.Ru, забирай!