PrimaNota.ru - самый крупный в мире бесплатный архив песенных текстов, аккордов, табулатур и нот


Electric Wizard - Turn Off Your Mind - текст песни, таба, видео

Регистрация Запомнить меня
Войти через:  Facebook Google Twitter Vk Yandex Mail.ru

Electric Wizard - Turn Off Your Mind - текст песни, таба, видео

Печатать
Просмотров: 147
--------------------------------------------------------------------------------------------------------
Song: Turn Off Your Mind
Band: Electric Wizard
Album: Black Masses
Tabbed by: TrollFaceJesus
E-mail: trollfacejesus@gmail.com


Hey everyone, this is my tab for this song, and I think it sounds pretty awesome. Hopefully everything
here is accurate, and that you guys find this tab to be helpful! If you have any comments, questions, or
corrections to point out, please feel free to leave a message here, or to send me an email! :D


Tuning: B


|-----|
|-----|
|-----| The song begins on a high B, while increasing the volume, followed by some guitar feedback.
|-----| Then the song proceeds to go into the intro riff:
|--7--|
|-----|


Intro Riff
|-----------------------------------|
|-----------------------------------|
|-----------------------------------| x1
|--------------------------------5--|
|---7-7--7--7--7-7---7p5----5-------|
|--0---------0----------7-----7-----|


Riff 1
|-----------------------|
|-----------------------|
|-----------------------| x15
|--------------------5--|
|---7----7p5----5-------|
|--0--0-----7-----7-----|


Riff 2a
|------------------------------------------------|
|------------------------------------------------|
|------------------------------------------------| x4
|--5---5--55--2---2--22--------2--0--2--0--2--0--|
|--3---3--33--0---0--00---2-2--------------------|
|-------------------------0-0--------------------|
          ..         ..


Riff 1 x 12

Riff 2a x 7


Riff 2b
|------------------------------|
|------------------------------|
|------------------------------| x1
|--5---5--55--2---2--22--------|
|--3---3--33--0---0--00---2----|
|-------------------------0----|
          ..         ..


The song then goes into a section filled with random guitar feedback, along with some creepy voices, 
before continuing with the main riff:

Riff 1 x 16

Riff 2a x 4


Riff 3
|--------------------------|
|--------------------------|
|--------0-----2--0-----0--| Play this riff until the end of the song, or until your fingers fall off.
|--2--4-----4--------4-----|
|--------------------------|
|--------------------------|


And that's it!


************************************

| /   slide up
| \   slide down
| h   hammer-on
| p   pull-off
| v   vibrato
| +   harmonic
| ·   mute note
| b   bend
| pb  pre-bend
| br  bend release
| pbr pre-bend release
| brb bend release bend

************************************
Добавлено: 04.08.2015
Другие материалы по этой песне:
  • Аккорды и текст

Страница создана 13.09.2014
http://primanota.ru/electric-wizard/turn-off-your-mind-chords.htm
Привет, Гость.
Предлагаем пройти революционный курс по гитаре.
Подарок от PrimaNota.Ru, забирай!