PrimaNota.ru - самый крупный в мире бесплатный архив песенных текстов, аккордов, табулатур и нот


Electric Wizard - Lucifers Slaves - таба, видео

Регистрация Запомнить меня
Войти через:  Facebook Google Twitter Vk Yandex Mail.ru

Electric Wizard - Lucifers Slaves - таба, видео

Печатать
Просмотров: 161
-----------------------------------------------------------------------------------
Song: Lucifer's Slaves
Band: Electric Wizard
Album: Time to Die
Tabbed by: TrollFaceJesus
E-mail: trollfacejesus@gmail.com


Hey everyone, this is my tab for this song, and I think it sounds pretty awesome.
All of the rhythm sections in the song are here, but I didn't tab out the solo.
Hopefully everything in here is accurate, and you guys find this tab to be helpful!
If you have any comments, questions or corrections to point out, please feel free
to leave a message here, or to send me an email! :D



Tuning: Drop-A



Intro (0:00)
============

Intro Riff (Guitar 1)

 1 e + a 2 e + a 3 e + a 4 e + a 1
|-------------------------------|-------------------------------|
|-------------------------------|-------------------------------|    Note: Guitar 1 starts by playing the
|-------------------------------|-------------------------------| x1 notes at the beginning of the measure,
|-------------------------------|----------[Feedback]-----------|    and then begins to produce feedback.
|-------------------------------|-------------------------------|
|2--/14-------------------------|-------------------------------|


Intro Riff (Guitar 2)

 1 e + a 2 e + a 3 e + a 4 e + a 1
|-------------------------------|-------------------------------|
|-------------------------------|-------------------------------|    Note: Guitar 2 starts by producing
|-------------------------------|-------------------------------| x1 feedback at the beginning of measure
|----[Feedback]----------2------|2---------[Feedback]-----------|    one, then plays the little riff at
|-------------------------------|-------------------------------|    at the end of the measure, followed
|--------------------2-------2--|-------------------------------|    by some more feedback.
                     .       .




Riff 1 (Guitar 1)

 1 e + a 2 e + a 3 e + a 4 e + a 1 e + a 2 e + a 3 e + a 4 e + a
|-------------------------------|-------------------------------|
|-------------------------------|-------------------------------|
|-------------------------------|-------------------------------| x4
|--------5-------------------2--|----3-------4-------7---7------|
|7---------------7---5-------0--|----1-------2-------5---5------|
|-------------------------------|----------------------------0--|


Riff 1 (Guitar 2)

 1 e + a 2 e + a 3 e + a 4 e + a 1 e + a 2 e + a 3 e + a 4 e + a     Note: The first time Guitar 1 plays
|-------------------------------|-------------------------------|    "Riff 1", Guitar 2 only produces
|-------------------------------|-------------------------------|    feedback. The 2nd, 3rd and 4th time
|-------------------------------|-------------------------------| x3 Guitar 1 plays "Riff 1", Guitar 2
|-------------------------------|-----------[Feedback]----------|    plays this riff here, followed by more
|7------------------------------|-------------------------------|    feedback. After this, Guitar 2 mimics
|-------------------------------|-------------------------------|    Guitar 1.




Main Riff/Verse I (0:31)
========================

Riff 1 x 8




Chorus I (1:13)
===============

Riff 2 (Guitar 1)

 1 e + a 2 e + a 3 e + a 4 e + a 1 e + a 2 e + a 3 e + a 4 e + a
|-------------------------------|-------------------------------|    Note: On the first bend, bend the note
|-------------------------------|-------------------------------|    about a 1/4 step, and then simply fret
|-------------------------------|-------------------------------| x4 the next note. On the second bend, bend
|-------------------------------|-------------------------------|    the note about a 1/4 step, hold it for
|-------------------------------|-------------------------------|    a short period, and then release it
|2-------2-------2---0---2---3b-|----2---3---5b-----------------|    near the end of the measure.

Riff 2 (Guitar 2)

 1 e + a 2 e + a 3 e + a 4 e + a 1 e + a 2 e + a 3 e + a 4 e + a
|-------------------------------|-------------------------------|    Note: On the first bend, bend the note
|-------------------------------|-------------------------------|    about a 1/4 step, and then simply fret
|-------------------------------|-------------------------------| x4 the next note. On the second bend, bend
|-------------------------------|-------------------------------|    the note about a 1/4 step, hold it for
|2-------2-------2---0---2---3b-|----2---3---5b-----------------|    a short period, and then release it
|2-------2-------2---0---2---3b-|----2---3---5b-----------------|    near the end of the measure.




Verse II (1:34)
===============

Riff 1 x 8




Chorus II (2:16)
================

Riff 2 x 4




Riff 2 (Guitar 1)

 1 e + a 2 e + a 3 e + a 4 e + a 1 e + a 2 e + a 3 e + a 4 e + a
|-------------------------------|-------------------------------|
|-------------------------------|-------------------------------|
|-------------------------------|-------------------------------| x4
|2-------2-------2---0---2---3b-|----2---3---5b-----------------|
|-------------------------------|-------------------------------|
|-------------------------------|-------------------------------|


Riff 2 (Guitar 2)

 1 e + a 2 e + a 3 e + a 4 e + a 1 e + a 2 e + a 3 e + a 4 e + a
|-------------------------------|-------------------------------|
|-------------------------------|-------------------------------|
|-------------------------------|-------------------------------| x4
|-------------------------------|-------------------------------|
|-------------------------------|-------------------------------|
|2-------2-------2---0---2---3b-|----2---3---5b-----------------|




Bridge I (2:57)
===============

Riff 3 (Guitar 1)

 1 + 2 + 3 + 4 + 1 + 2 + 3 + 4 + 1 + 2 + 3 + 4 + 1 + 2 + 3 + 4 +
|---------------|---------------|---------------|---------------|
|---------------|---------------|---------------|---------------|
|---------------|---------------|---------------|---------------| x4
|2--------------|--[Feedback]---|1--------------|--[Feedback]---|
|---------------|---------------|---------------|---------------|
|---------------|---------------|---------------|---------------|


Riff 3 (Guitar 2)

 1 + 2 + 3 + 4 + 1 + 2 + 3 + 4 + 1 + 2 + 3 + 4 + 1 + 2 + 3 + 4 +
|---------------|---------------|---------------|---------------|
|---------------|---------------|---------------|---------------|
|---------------|---------------|---------------|---------------| x4
|---------------|--[Feedback]---|---------------|--[Feedback]---|
|2--------------|---------------|1--------------|---------------|
|2--------------|---------------|1--------------|---------------|




Riff 4a (Guitar 1)

 1 e + a 2 e + a 3 e + a 4 e + a 1 e + a 2 e + a 3 e + a 4 e + a
|-------------------------------|-------------------------------|
|-------------------------------|-------------------------------|
|-------------------------------|-------------------------------| x1
|5-------5-------5---5---5---5--|----5---5---5---5---5---5---5--|
|3-------3-------3---3---3---3--|----3---3---3---3---3---3---3--|
|-------------------------------|-------------------------------|


Riff 4a (Guitar 2)

 1 e + a 2 e + a 3 e + a 4 e + a 1 e + a 2 e + a 3 e + a 4 e + a
|-------------------------------|-------------------------------|
|-------------------------------|-------------------------------|
|-------------------------------|-------------------------------| x1
|5-------5----------------------|----------[Feedback]-----------|
|3-------3----------------------|-------------------------------|
|-------------------------------|-------------------------------|




Riff 4b (Guitar 1)

 1 e + a 2 e + a 3 e + a 4 e + a 1 e + a 2 e + a 3 e + a 4 e + a
|-------------------------------|-------------------------------|
|-------------------------------|-------------------------------|
|-------------------------------|-------------------------------| x1
|4-------4-------4---4---4---4--|----4---4---4---4---4---4---4--|
|2-------2-------2---2---2---2--|----2---2---2---2---2---2---2--|
|-------------------------------|-------------------------------|


Riff 4b (Guitar 2)

 1 e + a 2 e + a 3 e + a 4 e + a 1 e + a 2 e + a 3 e + a 4 e + a
|-------------------------------|-------------------------------|
|-------------------------------|-------------------------------|
|-------------------------------|-------------------------------| x1
|4-------4----------------------|-------------------------------|
|2-------2----------------------|-------------------------------|
|-------------------------------|-------------------------------|




Riff 4a x 1




Riff 4c (Guitar 1 & 2)

 1 e + a 2 e + a 3 e + a 4 e + a 1 e + a 2 e + a 3 e + a 4 e + a
|-------------------------------|-------------------------------|
|-------------------------------|-------------------------------|
|-------------------------------|-------------------------------| x1
|4-------4-------4---4---4---4--|8---8---8---8---8---8---8---8--|
|2-------2-------2---2---2---2--|6---6---6---6---6---6---6---6--|
|-------------------------------|-------------------------------|




Bridge II (4:00)
================

Riff 5a (Guitar 1)

 1 e + a 2 e + a 3 e + a 4 e + a 1 e + a 2 e + a 3 e + a 4 e + a
|-------------------------------|---------------|---------------|
|-------------------------------|---------------|---------------|    Note: Even though I think both guitars
|-------------------------------|---------------|---------------| x1 play the trill on the 3rd string, I
|-------------------------------|2tr3-----------|---------------|    think having one guitar play the trill
|2-------2---2---2-------2---2--|---------------|---------------|    on the bottom string sounds awesome,
|2-------2---2---2-------2---2--(2tr3)----------|---------------|    and really fills out the low end.
         .   .           .   .

Riff 5a (Guitar 2)

 1 e + a 2 e + a 3 e + a 4 e + a 1 e + a 2 e + a 3 e + a 4 e + a
|-------------------------------|---------------|---------------|
|-------------------------------|---------------|---------------|    Note: Even though I think both guitars
|-------------------------------|---------------|---------------| x1 play the trill on the 3rd string, I
|-------------------------------|2tr3-----------|---------------|    think having one guitar play the trill
|2---------------2--------------|---------------|---------------|    on the bottom string sounds awesome,
|2---------------2--------------(2tr3)----------|---------------|    and really fills out the low end.




Riff 5b (Guitar 1)

 1 e + a 2 e + a 3 e + a 4 e + a 1 e + a 2 e + a 3 e + a 4 e + a
|-------------------------------|-------------------------------|
|-------------------------------|-------------------------------|    Note: On the last note, bend it about
|-------------------------------|-------------------------------| x1 a 1/4 step, hold it for a brief period,
|-------------------------------|-------------------------------|    and then release it back down near the
|2-------2---2---2-------2---2--|-------------------------------|    end of the measure.
|2-------2---2---2-------2---2--|2-------1-------5b-------------|
         .   .           .   .

Riff 5b (Guitar 2)

 1 e + a 2 e + a 3 e + a 4 e + a 1 e + a 2 e + a 3 e + a 4 e + a
|-------------------------------|-------------------------------|
|-------------------------------|-------------------------------|    Note: On the last chord, bend it about
|-------------------------------|-------------------------------| x1 a 1/4 step, hold it for a brief period,
|-------------------------------|-------------------------------|    and then release it back down near the
|2---------------2--------------|2-------1-------5b-------------|    end of the measure.
|2---------------2--------------|2-------1-------5b-------------|




Riff 5a x 1

Riff 5b x 1

Riff 5a x 1

Riff 5b x 1

Riff 5a x 1

Riff 5b x 1

Riff 5a x 1

Riff 5b x 1

Riff 5a x 1

Riff 5b x 1




Main Riff (5:33)
================

Riff 1 (Guitar 1)

 1 e + a 2 e + a 3 e + a 4 e + a 1 e + a 2 e + a 3 e + a 4 e + a
|-------------------------------|-------------------------------|
|-------------------------------|-------------------------------|
|-------------------------------|-------------------------------| x4
|--------5-------------------2--|----3-------4-------7---7------|
|7---------------7---5-------0--|----1-------2-------5---5------|
|-------------------------------|----------------------------0--|


Riff 1 (Guitar 2)

 1 e + a 2 e + a 3 e + a 4 e + a 1 e + a 2 e + a 3 e + a 4 e + a
|-------------------------------|-------------------------------|    Note: Similar to the beginning of the
|-------------------------------|-------------------------------|    song, Guitar 2 plays this during the
|-------------------------------|-------------------------------| x4 first four times that Guitar 1 is
|-------------------------------|----------[Feedback]-----------|    playing "Riff 1". After this, Guitar 2
|7------------------------------|-------------------------------|    mimics Guitar 1.
|-------------------------------|-------------------------------|




Riff 1 x 4




Chorus III (6:16)
=================

Riff 2 x 4




Main Riff (6:37)
================

Riff 1 x 4




Solo (6:58)
===========

Riff 1 x 18




Ending Riff (Rhythm)

 1 e + a 2 e + a 3 e + a 4 e + a 1 e + a 2 e + a 3 e + a 4 e + a
|-------------------------------|-------------------------------|
|-------------------------------|-------------------------------|
|-------------------------------|-------------------------------| x1
|2------------------------------|------------------------2------|
|-------------------------------|------------------------2------|
|-------------------------------|------------------------2------|




And that's it!




************************************

| /   slide up
| \   slide down
| h   hammer-on
| p   pull-off
| v   vibrato
| +   harmonic
| •   mute note
| b   bend
| pb  pre-bend
| br  bend release
| pbr pre-bend release
| brb bend release bend

************************************
Добавлено: 01.09.2015
Другие материалы по этой песне:
  • Аккорды и текст

Страница создана 01.09.2015
http://primanota.ru/electric-wizard/lucifers-slaves-chords.htm
Привет, Гость.
Предлагаем пройти революционный курс по гитаре.
Подарок от PrimaNota.Ru, забирай!