PrimaNota.ru - самый крупный в мире бесплатный архив песенных текстов, аккордов, табулатур и нот


Electric Six - Nuclear War - аккорды и текст, таба, видео

Регистрация Запомнить меня
Войти через:  Facebook Google Twitter Vk Yandex Mail.ru

Electric Six - Nuclear War - аккорды и текст, таба, видео

Печатать
Просмотров: 158
Уроки эстрадного вокала в Санкт-Петербурге
Nuclear War
Electric Six
		   Artist - Electric Six
Song - Nuclear War
Tabber - Matthew Cree
Comments - tenaciouscree@hotmail.com

Intro
C# x13 B x1

Main Riff/Chorus
e|------------------------9-----|
b|------------------------9-----|
g|-9--11-11--9-11-11--9---10-X6-|
d|------------------------11----|
a|------------------------11----|
e|------------------------9-----|

Verse
A, A#, B, C#
A, A#, B, C#
A, A#, B, C#
A, A#, B, C# B

Solo
e|------------------------9b9b9b9b9b9b|
b|------------------------9b9b9b9b9b9b|
g|-9--11-11--9-11-11--9---------------|
d|------------------------------------|
a|------------------------------------|
e|------------------------------------|

Outro
A, A#, B, C#

Play it in this order
Intro
Main Riff/Chorus x8
Verse
Main Riff/Chorus x4
Solo x4
Outro

Hope you think this is ok. Sounds pretty good to me.
The solo is a bit suspect, i think hes using some sorta foot pedaly thing t :). Enjoy.     
Добавлено: 06.07.2013
Другие материалы по этой песне:
  • Аккорды и текст

Страница создана 06.07.2013
http://primanota.ru/electric-six/nuclear-war-chords.htm
Привет, Гость.
Предлагаем пройти революционный курс по гитаре.
Подарок от PrimaNota.Ru, забирай!