PrimaNota.ru - самый крупный в мире бесплатный архив песенных текстов, аккордов, табулатур и нот


Electric Light Orchestra - So Fine - аккорды и текст, бас-таба, видео

Регистрация Запомнить меня
Войти через:  Facebook Google Twitter Vk Yandex Mail.ru

Electric Light Orchestra - So Fine - аккорды и текст, бас-таба, видео

Печатать
Просмотров: 186
So Fine
Electric Light Orchestra
-------------------------------------------------------------------------------
                       SO FINE - Electric Light Orchestra
-------------------------------------------------------------------------------


Tabbed by: SethMegadefan
Email: SethMegadefan@gmail.com

Tuning: Standard


Intro:

E       C       G       D       A
Ooh-la, ooh-la, ooh-la, ooh-la, oooooh  x3



  E         A               
e|------------------------------|
B|9---9-9--10---10-10-10-10-----|
G|9---9-9--9----9--9--9--9------|
D|9---9-9--11---11-11-11-11-----|
A|------------------------------|
E|------------------------------|  x8



Verse:

E   A               E       A
Two drifters on the morning sky,
E   A                E        A
Two drifters sailing wide and high,
E         F#m              Abm       A
When summer breezes blow across your mind,
     E  F#m   Abm             A    B
With yo-ou,   I will walk the line


Chorus:

          C#m        F#m
I want it so fine    whoo-whoo
          C#m        F#m
I want it so fine    whoo-whoo
          C#m        F#m  Am
I want it so fine    whoo-whoo


  E         A               
e|------------------------------|
B|9---9-9--10---10-10-10-10-----|
G|9---9-9--9----9--9--9--9------|
D|9---9-9--11---11-11-11-11-----|
A|------------------------------|
E|------------------------------|  x4


Verse:

E  A              E       A
   People walking hand in hand,
E    A              E      A
Everybody's singing to the band,
E        F#m           Abm          A
I want to be where the stars shine bright,
E       F#m           Abm        A      B
And hear sweet music on a summer night


Chorus:

          C#m        F#m
I want it so fine    whoo-whoo
          C#m        F#m
I want it so fine    whoo-whoo
          C#m        F#m  Am
I want it so fine    whoo-whoo



E       C       G       D       A
Ooh-la, ooh-la, ooh-la, ooh-la, oooooh  x3


[Breakdown]


  E         A               
e|------------------------------|
B|9---9-9--10---10-10-10-10-----|
G|9---9-9--9----9--9--9--9------|
D|9---9-9--11---11-11-11-11-----|
A|------------------------------|
E|------------------------------|  x4


Verse:

E   A               E      A
Sundowners we'll go on and on,
E            A             E        A
We'll find the land of the midnight sun,
E         F#m                    Abm     A
And when you look you'll see for miles around,
       E  F#m     Abm              A     B
You'll se-ee, the world is in your hand


Chorus:

          C#m        F#m
I want it so fine    whoo-whoo
          C#m        F#m
I want it so fine    whoo-whoo
          C#m        F#m  Am
I want it so fine    whoo-whoo


E  A             E             A
Oh baby, yes you know just what I want


Chorus:

          C#m        F#m
I want it so fine    whoo-whoo
          C#m        F#m
I want it so fine    whoo-whoo
          C#m        F#m  Am
I want it so fine    whoo-whoo


E       C       G       D       A
Ooh-la, ooh-la, ooh-la, ooh-la, oooooh  x3
Добавлено: 05.04.2012
Другие материалы по этой песне:
  • Аккорды и текст

Страница создана 22.03.2012
http://primanota.ru/electric-light-orchestra/so-fine-chords.htm
Привет, Гость.
Предлагаем пройти революционный курс по гитаре.
Подарок от PrimaNota.Ru, забирай!