PrimaNota.ru - самый крупный в мире бесплатный архив песенных текстов, аккордов, табулатур и нот


Electric Light Orchestra - Rock And Roll Is King - таба, бас-таба, видео

Регистрация Запомнить меня
Войти через:  Facebook Google Twitter Vk Yandex Mail.ru

Electric Light Orchestra - Rock And Roll Is King - таба, бас-таба, видео

Печатать
Просмотров: 311
Уроки эстрадного вокала в Санкт-Петербурге
ROCK & ROLL IS KING

As recorded by Electric Light Orchestra
(From the 1983 Album SECRET MESSAGES)

Words and Music by Jeff Lynne

Transcribed by Slowhand


Gtr I (E A D G B E) - 'Jeff Lynne - Electric Guitar 1'
Gtr II (E A D G B E) - 'Jeff Lynne - Electric Guitar 2'
Gtr III (E A D G B E) - 'Jeff Lynne - Electric Guitar 3'
Gtr IV (E A D G B E) - 'Mik Kaminski - Strings'
Gtr V (E A D G B E) - 'Richard Tandy - Synthesizer'


 Intro
  Q=160
                          A5
 4/4
  Gtr I
                          \0.5
  W          Wx2          E    +E  E E +E  E E E
|----------|------------|------------------------|
|----------|------------|------------------------|
|----------|------------|------------------------|
|----------|------------|-2----(2)-2-2-(2)-2-2-2-|
|----------|------------|-0----(0)-0-0-(0)-0-0-0-|
|----------|------------|------------------------|


  Gtr I
  \0.5                     \0.5
  E    +E  E E +E  E E E   E    +E  E E +E  E E E
|------------------------|------------------------|
|------------------------|------------------------|
|------------------------|------------------------|
|-2----(2)-2-2-(2)-2-2-2-|-2----(2)-2-2-(2)-2-2-2-|
|-0----(0)-0-0-(0)-0-0-0-|-0----(0)-0-0-(0)-0-0-0-|
|------------------------|------------------------|
|
| Gtrs II, III
| W                        E     E  E E  E  E E E
|------------------------|------------------------|
|------------------------|------------------------|
|------------------------|------------------------|
|------------------------|-2-----2--4-4--2--2-4-4-|
|------------------------|-0-----0--0-0--0--0-0-0-|
|------------------------|------------------------|


  \0.5                     \0.5
  E    +E  E E +E  E E E   E    +E  E E +E  E E E
|------------------------|-------------------------|
|------------------------|-------------------------|
|------------------------|-------------------------|
|-2----(2)-2-2-(2)-2-2-2-|-2----(2)-2-2-(2)-2-2-2--|
|-0----(0)-0-0-(0)-0-0-0-|-0----(0)-0-0-(0)-0-0-0--|
|------------------------|-------------------------|
|
| E     E  E E  E  E E E   E     E  E E  E  E E E
|------------------------|-------------------------|
|------------------------|-------------------------|
|------------------------|-------------------------|
|-2-----2--4-4--2--2-4-4-|-2-----2--4-4--2--2-4-4--|
|-0-----0--0-0--0--0-0-0-|-0-----0--0-0--0--0-0-0--|
|------------------------|-------------------------|


                           1st Verse
                            A5
  \0.5
  E    +E  E E +E  E E E    H.           E E
|------------------------||------------------|
|------------------------||------------------|
|------------------------||------------------|
|-2----(2)-2-2-(2)-2-2-2-||-2------------2-2-|
|-0----(0)-0-0-(0)-0-0-0-||-0------------0-0-|
|------------------------||------------------|
|
| E     E  E E  E  E E E    E  E E E E E E E
|------------------------||------------------|
|------------------------||------------------|
|------------------------||------------------|
|-2-----2--4-4--2--2-4-4-||-2--2-4-4-2-2-4-4-|
|-0-----0--0-0--0--0-0-0-||-0--0-0-0-0-0-0-0-|
|------------------------||------------------|


  +H        E E Q     E E E E E E E E
|-------------------|------------------|
|-------------------|---2-----2-2------|
|-----------2-2-----|---2-----2-2---2--|
|-(2)-------2-2-----|---2-----2-2---2--|
|-(0)---------------|-------0-----0----|
|-------------------|------------------|
|
|  E  E E E E E E E   E E E E E E E E
|-------------------|------------------|
|-------------------|------------------|
|-------------------|------------------|
|--2--2-4-4-2-2-4-4-|-2-2-4-4-2-2-4-4--|
|--0--0-0-0-0-0-0-0-|-0-0-0-0-0-0-0-0--|
|-------------------|------------------|


                                                          E5
  +E  E Q   H         W                 W                 W
|-------------------|-----------------|-----------------|------------------|
|-------------------|-----------------|-----------------|------------------|
|-(2)---------------|-----------------|-----------------|------------------|
|-(2)---------------|-----------------|-----------------|------------------|
|-------------------|-----------------|-----------------|------------------|
|-------------------|-----------------|-----------------|------------------|
|
|  E  E E E E E E E   E E E E E E E E   E E E E E E E E   E E E E E E E E
|-------------------|-----------------|-----------------|------------------|
|-------------------|-----------------|-----------------|------------------|
|-------------------|-----------------|-----------------|------------------|
|--2--2-4-4-2-2-4-4-|-2-2-4-4-2-2-4-4-|-2-2-4-4-2-2-4-4-|------------------|
|--0--0-0-0-0-0-0-0-|-0-0-0-0-0-0-0-0-|-0-0-0-0-0-0-0-0-|-2-2-4-4-2-2-4-4--|
|-------------------|-----------------|-----------------|-0-0-0-0-0-0-0-0--|


                    D5                                  A5
  E E E E E E E E   E E E E E E E E   E E E E E E E E   E E E E E E E E
|-----------------|-----------------|-----------------|------------------|
|-----------------|-----------------|-----------------|------------------|
|-----------------|-2-2-4-4-2-2-4-4-|-2-2-4-4-2-2-4-4-|------------------|
|-----------------|-0-0-0-0-0-0-0-0-|-0-0-0-0-0-0-0-0-|-2-2-4-4-2-2-4-4--|
|-2-2-4-4-2-2-4-4-|-----------------|-----------------|-0-0-0-0-0-0-0-0--|
|-0-0-0-0-0-0-0-0-|-----------------|-----------------|------------------|


  Gtr I
  W                 W
|-----------------|-----------------|
|-----------------|-----------------|
|-----------------|-----------------|
|-----------------|-----------------|
|-----------------|-----------------|
|-----------------|-----------------|
|
| Gtrs II, III
| E E E E E E E E   E E E E E E E E
|-----------------|-----------------|
|-----------------|-----------------|
|-----------------|-----------------|
|-2-2-4-4-2-2-4-4-|-2-2-4-4-2-2-4-4-|
|-0-0-0-0-0-0-0-0-|-0-0-0-0-0-0-0-0-|
|-----------------|-----------------|


  E5                A5
                    \0.5
  W                 E    +E  E E +E  E E E
|-----------------|-------------------------|
|-----------------|-------------------------|
|-----------------|-------------------------|
|-----------------|-2----(2)-2-2-(2)-2-2-2--|
|-----------------|-0----(0)-0-0-(0)-0-0-0--|
|-----------------|-------------------------|
|
| E E E E E E E E   E     E  E E  E  E E E
|-----------------|-------------------------|
|-----------------|-------------------------|
|-----------------|-------------------------|
|-----------------|-2-----2--4-4--2--2-4-4--|
|-2-2-4-4-2-2-4-4-|-0-----0--0-0--0--0-0-0--|
|-0-0-0-0-0-0-0-0-|-------------------------|


                           2nd Verse
                            A5
  \0.5
  E    +E  E E +E  E E E    E E E E E E E E
|------------------------||-----------------|
|------------------------||-----------------|
|------------------------||---------2-2-----|
|-2----(2)-2-2-(2)-2-2-2-||---------2-2-----|
|-0----(0)-0-0-(0)-0-0-0-||-0-0-3-4-----3h4-|
|------------------------||-----------------|
|
| E     E  E E  E  E E E    E E E E E E E E
|------------------------||-----------------|
|------------------------||-----------------|
|------------------------||-----------------|
|-2-----2--4-4--2--2-4-4-||-2-2-4-4-2-2-4-4-|
|-0-----0--0-0--0--0-0-0-||-0-0-0-0-0-0-0-0-|
|------------------------||-----------------|


  E E E E E E E E   E E E E E E E E
|-----------------|------------------|
|-----------------|------------------|
|---------2-2-----|---------2-2------|
|---------2-2-----|---------2-2------|
|-0-0-3-4-----3h4-|-0-0-3-4-----3h4--|
|-----------------|------------------|
|
| E E E E E E E E   E E E E E E E E
|-----------------|------------------|
|-----------------|------------------|
|-----------------|------------------|
|-2-2-4-4-2-2-4-4-|-2-2-4-4-2-2-4-4--|
|-0-0-0-0-0-0-0-0-|-0-0-0-0-0-0-0-0--|
|-----------------|------------------|


                                                        E5
  E E E E E E E E   E E E E E E E E   E E E E E E E E   E E E E E E E E
|-----------------|-----------------|-----------------|------------------|
|-----------------|-----------------|-----------------|------------------|
|---------2-2-----|---------2-2-----|---------2-2-----|------------------|
|---------2-2-----|---------2-2-----|---------2-2-----|---------2-2------|
|-0-0-3-4-----3h4-|-0-0-3-4-----3h4-|-0-0-3-4-----3h4-|---------2-2------|
|-----------------|-----------------|-----------------|-0-0-3-4-----3h4--|
|
| E E E E E E E E   E E E E E E E E   E E E E E E E E   E E E E E E E E
|-----------------|-----------------|-----------------|------------------|
|-----------------|-----------------|-----------------|------------------|
|-----------------|-----------------|-----------------|------------------|
|-2-2-4-4-2-2-4-4-|-2-2-4-4-2-2-4-4-|-2-2-4-4-2-2-4-4-|------------------|
|-0-0-0-0-0-0-0-0-|-0-0-0-0-0-0-0-0-|-0-0-0-0-0-0-0-0-|-2-2-4-4-2-2-4-4--|
|-----------------|-----------------|-----------------|-0-0-0-0-0-0-0-0--|


                    D5                                  A5
  E E E E E E E E   E E E E E E E E   E E E E E E E E   E E E E E E E E
|-----------------|-----------------|-----------------|------------------|
|-----------------|---------3-3-----|---------3-3-----|------------------|
|-----------------|---------2-2-----|---------2-2-----|---------2-2------|
|---------2-2-----|-0-0-3-4-----3h4-|-0-0-3-4-----3h4-|---------2-2------|
|---------2-2-----|-----------------|-----------------|-0-0-3-4-----3h4--|
|-0-0-3-4-----3h4-|-----------------|-----------------|------------------|
|
| E E E E E E E E   E E E E E E E E   E E E E E E E E   E E E E E E E E
|-----------------|-----------------|-----------------|------------------|
|-----------------|-----------------|-----------------|------------------|
|-----------------|-2-2-4-4-2-2-4-4-|-2-2-4-4-2-2-4-4-|------------------|
|-----------------|-0-0-0-0-0-0-0-0-|-0-0-0-0-0-0-0-0-|-2-2-4-4-2-2-4-4--|
|-2-2-4-4-2-2-4-4-|-----------------|-----------------|-0-0-0-0-0-0-0-0--|
|-0-0-0-0-0-0-0-0-|-----------------|-----------------|------------------|


                                      E5                A5
  E E E E E E E E   E E E E E E E E   E E E E E E E E   E E E E E E E E
|-----------------|-----------------|-----------------|------------------|
|-----------------|-----------------|-----------------|------------------|
|---------2-2-----|---------2-2-----|-----------------|---------2-2------|
|---------2-2-----|---------2-2-----|---------2-2-----|---------2-2------|
|-0-0-3-4-----3h4-|-0-0-3-4-----3h4-|---------2-2-----|-0-0-3-4-----3h4--|
|-----------------|-----------------|-0-0-3-4-----3h4-|------------------|
|
| E E E E E E E E   E E E E E E E E   E E E E E E E E   E E E E E E E E
|-----------------|-----------------|-----------------|------------------|
|-----------------|-----------------|-----------------|------------------|
|-----------------|-----------------|-----------------|------------------|
|-2-2-4-4-2-2-4-4-|-2-2-4-4-2-2-4-4-|-----------------|-2-2-4-4-2-2-4-4--|
|-0-0-0-0-0-0-0-0-|-0-0-0-0-0-0-0-0-|-2-2-4-4-2-2-4-4-|-0-0-0-0-0-0-0-0--|
|-----------------|-----------------|-0-0-0-0-0-0-0-0-|------------------|


                 Chorus
               $
                  D                A                E
  Gtrs I, II
  E E Q  Q  Q     Q  E E E E E E   Q  E E E E E E   Q   E E E E E E
|--------------||----2-2---2-2---|----------------|------------------|
|--------------||----3-3---3-3---|----2-2---2-2---|------------------|
|--------------||----2-2---2-2---|----2-2---2-2---|-----1-1---1-1----|
|-2-2----------||-0--0-0---0-0---|----2-2---2-2---|-----2-2---2-2----|
|-0-0-0--2--4--||----------------|-0--0-0---0-0---|-----2-2---2-2----|
|--------------||----------------|----------------|-0---0-0---0-0----|
|
| Gtr III
| W               W                W                E E E E E E E E
|--------------||----------------|----------------|------------------|
|--------------||----------------|----------------|------------------|
|--------------||----------------|----------------|------------------|
|--------------||----------------|----------------|------------------|
|--------------||----------------|----------------|-2-2-4-4-2-2-4-4--|
|--------------||----------------|----------------|-0-0-0-0-0-0-0-0--|


  A                 D                 A                 B
  Q   E E E E E E   Q   E E E E E E   Q   E E E E E E   Q  E E  E  E E E
|-----------------|-----2-2---2-2---|-----------------|-------------------|
|-----2-2---2-2---|-----3-3---3-3---|-----2-2---2-2---|----4-4-----4-4----|
|-----2-2---2-2---|-----2-2---2-2---|-----2-2---2-2---|----4-4-----4-4----|
|-----2-2---2-2---|-0---0-0---0-0---|-----2-2---2-2---|----4-4-----4-4----|
|-0---0-0---0-0---|-----------------|-0---0-0---0-0---|-2--2-2-----2-2----|
|-----------------|-----------------|-----------------|-------------------|
|
| E E E E E E E E   E E E E E E E E   E E E E E E E E   Q  E E +E  E Q
|-----------------|-----------------|-----------------|-------------------|
|-----------------|-----------------|-----------------|-------------------|
|-----------------|-2-2-4-4-2-2-4-4-|-----------------|-------------------|
|-2-2-4-4-2-2-4-4-|-0-0-0-0-0-0-0-0-|-2-2-4-4-2-2-4-4-|-4--4-4-(4)-4-4----|
|-0-0-0-0-0-0-0-0-|-----------------|-0-0-0-0-0-0-0-0-|-2--2-2-(2)-2-2----|
|-----------------|-----------------|-----------------|-------------------|


                           3rd Verse
           To Coda
  E                         A5
  E E Q  H      W           E E E E E E E E   E E E E E E E E
|-------------|----------||-----------------|------------------|
|-------------|----------||-----------------|------------------|
|-1-----------|----------||-----------------|------------------|
|-2-----------|----------||-2-2-4-4-5-5-4-4-|-2-2-4-4-2-2-4-4--|
|-2-----------|----------||-0-0-0-0-0-0-0-0-|-0-0-0-0-0-0-0-0--|
|-0-----------|----------||-----------------|------------------|
|
| E E Q  H      W           E E E E E E E E   E E E E E E E E
|-------------|----------||-----------------|------------------|
|-------------|----------||-----------------|------------------|
|-------------|----------||-----------------|------------------|
|-------------|----------||-2-2-4-4-2-2-4-4-|-2-2-4-4-2-2-4-4--|
|-2-----------|----------||-0-0-0-0-0-0-0-0-|-0-0-0-0-0-0-0-0--|
|-0-----------|----------||-----------------|------------------|
                            W


  E E E E E E E E   E E E E E E E E   E E E E E E E E   E E E E E E E E
|-----------------|-----------------|-----------------|------------------|
|-----------------|-----------------|-----------------|------------------|
|---------2-2-----|---------2-2-----|---------2-2-----|---------2-2------|
|---------2-2-----|---------2-2-----|---------2-2-----|---------2-2------|
|-0-0-3-4-----3h4-|-0-0-3-4-----3h4-|-0-0-3-4-----3h4-|-0-0-3-4-----3h4--|
|-----------------|-----------------|-----------------|------------------|
|
| E E E E E E E E   E E E E E E E E   E E E E E E E E   E E E E E E E E
|-----------------|-----------------|-----------------|------------------|
|-----------------|-----------------|-----------------|------------------|
|-----------------|-----------------|-----------------|------------------|
|-2-2-4-4-2-2-4-4-|-2-2-4-4-2-2-4-4-|-2-2-4-4-2-2-4-4-|-2-2-4-4-2-2-4-4--|
|-0-0-0-0-0-0-0-0-|-0-0-0-0-0-0-0-0-|-0-0-0-0-0-0-0-0-|-0-0-0-0-0-0-0-0--|
|-----------------|-----------------|-----------------|------------------|


  E5                                  D5
  E E E E E E E E   E E E E E E E E   E E E E E E E E   E E E E E E E E
|-----------------|-----------------|-----------------|------------------|
|-----------------|-----------------|-----------------|------------------|
|-----------------|-----------------|-2-2-4-4-2-2-4-4-|-2-2-4-4-2-2-4-4--|
|-----------------|---------2-2-----|-0-0-0-0-0-0-0-0-|-0-0-0-0-0-0-0-0--|
|-2-2-4-4-2-2-4-4-|---------2-2-----|-----------------|------------------|
|-0-0-0-0-0-0-0-0-|-0-0-3-4-----3h4-|-----------------|------------------|
|
| E E E E E E E E   E E E E E E E E   E E E E E E E E   E E E E E E E E
|-----------------|-----------------|-----------------|------------------|
|-----------------|-----------------|-----------------|------------------|
|-----------------|-----------------|-2-2-4-4-2-2-4-4-|-2-2-4-4-2-2-4-4--|
|-----------------|-----------------|-0-0-0-0-0-0-0-0-|-0-0-0-0-0-0-0-0--|
|-2-2-4-4-2-2-4-4-|-2-2-4-4-2-2-4-4-|-----------------|------------------|
|-0-0-0-0-0-0-0-0-|-0-0-0-0-0-0-0-0-|-----------------|------------------|


  A5                                                    E5
  E E E E E E E E   E E E E E E E E   E E E E E E E E   E E E E E E E E
|-----------------|-----------------|-----------------|------------------|
|-----------------|-----------------|-----------------|------------------|
|-----------------|-----------------|-----------------|------------------|
|-2-2-4-4-2-2-4-4-|-2-2-4-4-2-2-4-4-|-2-2-4-4-2-2-4-4-|------------------|
|-0-0-0-0-0-0-0-0-|-0-0-0-0-0-0-0-0-|-0-0-0-0-0-0-0-0-|-2-2-4-4-2-2-4-4--|
|-----------------|-----------------|-----------------|-0-0-0-0-0-0-0-0--|
|
| E E E E E E E E   E E E E E E E E   E E E E E E E E   E E E E E E E E
|-----------------|-----------------|-----------------|------------------|
|-----------------|-----------------|-----------------|------------------|
|-----------------|-----------------|-----------------|------------------|
|-2-2-4-4-2-2-4-4-|-2-2-4-4-2-2-4-4-|-2-2-4-4-2-2-4-4-|------------------|
|-0-0-0-0-0-0-0-0-|-0-0-0-0-0-0-0-0-|-0-0-0-0-0-0-0-0-|-2-2-4-4-2-2-4-4--|
|-----------------|-----------------|-----------------|-0-0-0-0-0-0-0-0--|


  A5
                                    Gt
  E E E E E E E E   E E E E E E E E
|-----------------|-----------------||
|-----------------|-----------------||
|-----------------|---------2-2-----||
|-2-2-4-4-2-2-4-4-|---------2-2-----||
|-0-0-0-0-0-0-0-0-|-0-0-3-4-----3h4-||
|-----------------|-----------------||
|
| E E E E E E E E   E E E E E E E E
|-----------------|-----------------||
|-----------------|-----------------||
|-----------------|-----------------||
|-2-2-4-4-2-2-4-4-|-2-2-4-4-2-2-4-4-||
|-0-0-0-0-0-0-0-0-|-0-0-0-0-0-0-0-0-||
|-----------------|-----------------||


 Interlude
  A5
 r IV
   E  E  Q    E  E  E  E    E  E  E  E  E  E E  E
|------------------------|-------------------------|
|-15-15-15---15-17-19-17-|-15-17-17-17-15-14---14--|
|-16-16-16---16-18-18-18-|-16-18-18-18-16-14---14--|
|------------------------|-------------------------|
|------------------------|-------------------------|
|------------------------|-------------------------|
|
|  E  E  E E  E  E  E  E    E  E  E  E  E  E E  E
|------------------------|-------------------------|
|------------------------|-------------------------|
|------------------------|-------------------------|
|--2--2--4-4--2--2--4--4-|--2--2--4--4--2--2-4--4--|
|--0--0--0-0--0--0--0--0-|--0--0--0--0--0--0-0--0--|
|------------------------|-------------------------|


                                                    G
   E  E  E  E  E  E  E  E    E  E  E  E  E  E  E  E
|-------------------------|-------------------------|
|-15-17-17-17-15-17-17-17-|-15-17-17-17-15-14-14-14-|
|-16-18-18-18-16-18-18-18-|-16-18-18-18-16-14-14-14-|
|-------------------------|-------------------------|
|-------------------------|-------------------------|
|-------------------------|-------------------------|
|
|  E  E  E  E  E  E  E  E    E  E  E  E  E  E  E  E
|-------------------------|-------------------------|
|-------------------------|-------------------------|
|-------------------------|-------------------------|
|--2--2--4--4--2--2--4--4-|--2--2--4--4--2--2--4--4-|
|--0--0--0--0--0--0--0--0-|--0--0--0--0--0--0--0--0-|
|-------------------------|-------------------------|


  D5
 tr V
  E     E E     E     E E     E     E   E E     E     E E     E Q
|-8-------8-----8-------8-----8-------|---8-----8-------8------------|
|-8-------8-----8-------8-----8-------|---8-----8-------8------------|
|-7b7.5---7b7.5-7b7.5---7b7.5-7b7.5---|---7b7.5-7b7.5---7b7.5--------|
|-------------------------------------|------------------------------|
|-------------------------------------|------------------------------|
|-------------------------------------|------------------------------|
|
| E     E E     E     E E     E     E   E E     E     E E     E E E
|-------------------------------------|------------------------------|
|-------------------------------------|------------------------------|
|-2-----2-4-----4-----2-2-----4-----4-|-2-2-----4-----4-2-----2-4-4--|
|-0-----0-0-----0-----0-0-----0-----0-|-0-0-----0-----0-0-----0-0-0--|
|-------------------------------------|------------------------------|
|-------------------------------------|------------------------------|


  A5
  Gtr I                                    G
      \1/
  Q   Q     +E  Q.       E Q   E +E  E Q
|---------------2------|-5p2---5-(5)-------|
|-----2-----(2)--------|-------------------|
|----------------------|-------------------|
|----------------------|-------------------|
|-0--------------------|-------------------|
|----------------------|-------------------|
|
| E E E   E  E  E  E E   E E E E  E  E E E
|----------------------|-------------------|
|----------------------|-------------------|
|----------------------|-------------------|
|-2-2-4---4--2--2--4-4-|-2-2-4-4--2--2-4-4-|
|-0-0-0---0--0--0--0-0-|-0-0-0-0--0--0-0-0-|
|----------------------|-------------------|


  D5
 tr V
  E E E E E E Q     E E E E H
|-5-5-5-5-5-5-----|-5-5---5----------|
|-5-5-5-5-5-5-----|-5-5---5----------|
|-2-2-2-2-2-2-----|-2-2---2----------|
|-----------------|------------------|
|-----------------|------------------|
|-----------------|------------------|
|
| E E E E E E E E   E E E E E E E E
|-----------------|------------------|
|-----------------|------------------|
|-2-2-4-4-2-2-4-4-|-2-2-4-4-2-2-4-4--|
|-0-0-0-0-0-0-0-0-|-0-0-0-0-0-0-0-0--|
|-----------------|------------------|
|-----------------|------------------|


  A5                        F#5
  Gtr IV                                            G
   E  E  E  E  E  E  E  E     E  E  E  E  E  E  Q
|-------------------------|-----17------------------|
|-15-17-17-17-15-17-17-17-|-/19----19-17-19-17------|
|-16-18-18-18-16-18-18-18-|--------------------18---|
|-------------------------|-------------------------|
|-------------------------|-------------------------|
|-------------------------|-------------------------|
|
|  E  E  E  E  E  E  E  E     E  E  E  E  E  E  E E
|-------------------------|-------------------------|
|-------------------------|-------------------------|
|-------------------------|-------------------------|
|--2--2--4--4--2--2--4--4-|-------------------------|
|--0--0--0--0--0--0--0--0-|---4--4--4--4--4--4--4-4-|
|-------------------------|---2--2--2--2--2--2--2-2-|


  A5                   E5
 tr I
                       \0.5/
  Q   Q   +E  Q.       Q       E E E Q   E
|-----2---(2)--------|---------0-----0------|
|-------------2------|-------------3--------|
|--------------------|----------------------|
|--------------------|----------------------|
|-0------------------|----------------------|
|--------------------|-0-----------------0--|
|
| E E E E  E  E  E E   E     E E E E E E E
|--------------------|----------------------|
|--------------------|----------------------|
|--------------------|----------------------|
|-2-2-4-4--2--2--4-4-|----------------------|
|-0-0-0-0--0--0--0-0-|-2-----2-4-4-2-2-4-4--|
|--------------------|-0-----0-0-0-0-0-0-0--|


                                   4th Verse
                    D.S. al Coda &
  A5                                A5
  E E Q   E Q   E   E E Q  H        Q    E E E  E Q     Q    E E E  E Q
|-----------2-----|-2------------||------9------9-----|------9------9------|
|-----2---2-------|--------------||-----10-----10-----|-----10-----10------|
|---2-------------|--------------||------9------9-----|------9------9------|
|---------------2-|--------------||-------------------|--------------------|
|-0---------------|--------------||-------------------|--------------------|
|-----------------|--------------||-------------------|--------------------|
|
| E E E E E E E E   E E Q  Q  Q     E E  E E E  E E E   E E  E E E  E E E
|-----------------|--------------||-------------------|--------------------|
|-----------------|--------------||-------------------|--------------------|
|-----------------|--------------||-------------------|--------------------|
|-2-2-4-4-2-2-4-4-|-2-2----------||-2-2--4-4-2--2-4-4-|-2-2--4-4-2--2-4-4--|
|-0-0-0-0-0-0-0-0-|-0-0-0--2--4--||-0-0--0-0-0--0-0-0-|-0-0--0-0-0--0-0-0--|
|-----------------|--------------||-------------------|--------------------|


  Q    E E E  E Q     Q    E E E  E Q
|------9------9-----|------9------9-----|
|-----10-----10-----|-----10-----10-----|
|------9------9-----|------9------9-----|
|-------------------|-------------------|
|-------------------|-------------------|
|-------------------|-------------------|
|
| E E  E E E  E E E   E E  E E E  E E E
|-------------------|-------------------|
|-------------------|-------------------|
|-------------------|-------------------|
|-2-2--4-4-2--2-4-4-|-2-2--4-4-2--2-4-4-|
|-0-0--0-0-0--0-0-0-|-0-0--0-0-0--0-0-0-|
|-------------------|-------------------|


  Q    E E E  E Q     Q    E E E  E Q
|------9------9-----|------9------9------|
|-----10-----10-----|-----10-----10------|
|------9------9-----|------9------9------|
|-------------------|--------------------|
|-------------------|--------------------|
|-------------------|--------------------|
|
| E E  E E E  E E E   E E  E E E  E E E
|-------------------|--------------------|
|-------------------|--------------------|
|-------------------|--------------------|
|-2-2--4-4-2--2-4-4-|-2-2--4-4-2--2-4-4--|
|-0-0--0-0-0--0-0-0-|-0-0--0-0-0--0-0-0--|
|-------------------|--------------------|


  E5
  Q    E E E  E Q     Q    E E E  E Q
|-----12-----12-----|-----12-----12-----|
|-----12-----12-----|-----12-----12-----|
|-----13-----13-----|-----13-----13-----|
|-------------------|-------------------|
|-------------------|-------------------|
|-------------------|-------------------|
|
| E E  E E E  E E E   E E  E E E  E E E
|-------------------|-------------------|
|-------------------|-------------------|
|-------------------|-------------------|
|-------------------|-------------------|
|-2-2--4-4-2--2-4-4-|-2-2--4-4-2--2-4-4-|
|-0-0--0-0-0--0-0-0-|-0-0--0-0-0--0-0-0-|


  D5
  Q    E E E  E Q     Q    E E E  E Q
|-----10-----10-----|-----10-----10------|
|-----10-----10-----|-----10-----10------|
|-----11-----11-----|-----11-----11------|
|-------------------|--------------------|
|-------------------|--------------------|
|-------------------|--------------------|
|
| E E  E E E  E E E   E E  E E E  E E E
|-------------------|--------------------|
|-------------------|--------------------|
|-2-2--4-4-2--2-4-4-|-2-2--4-4-2--2-4-4--|
|-0-0--0-0-0--0-0-0-|-0-0--0-0-0--0-0-0--|
|-------------------|--------------------|
|-------------------|--------------------|


  A5
  Q    E E E  E Q     Q    E E E  E Q
|------9------9-----|------9------9-----|
|-----10-----10-----|-----10-----10-----|
|------9------9-----|------9------9-----|
|-------------------|-------------------|
|-------------------|-------------------|
|-------------------|-------------------|
|
| E E  E E E  E E E   E E  E E E  E E E
|-------------------|-------------------|
|-------------------|-------------------|
|-------------------|-------------------|
|-2-2--4-4-2--2-4-4-|-2-2--4-4-2--2-4-4-|
|-0-0--0-0-0--0-0-0-|-0-0--0-0-0--0-0-0-|
|-------------------|-------------------|


                      E5
  Q    E E E  E Q     Q    E E E  E Q
|------9------9-----|-----12-----12------|
|-----10-----10-----|-----12-----12------|
|------9------9-----|-----13-----13------|
|-------------------|--------------------|
|-------------------|--------------------|
|-------------------|--------------------|
|
| E E  E E E  E E E   E E  E E E  E E E
|-------------------|--------------------|
|-------------------|--------------------|
|-------------------|--------------------|
|-2-2--4-4-2--2-4-4-|--------------------|
|-0-0--0-0-0--0-0-0-|-2-2--4-4-2--2-4-4--|
|-------------------|-0-0--0-0-0--0-0-0--|


  A5
  \0.5                     \0.5
  E    +E  E E +E  E E E   E    +E  E E +E  E E E
|------------------------|------------------------|
|------------------------|------------------------|
|------------------------|------------------------|
|-2----(2)-2-2-(2)-2-2-2-|-2----(2)-2-2-(2)-2-2-2-|
|-0----(0)-0-0-(0)-0-0-0-|-0----(0)-0-0-(0)-0-0-0-|
|------------------------|------------------------|
|
| E     E  E E  E  E E E   E     E  E E  E  E E E
|------------------------|------------------------|
|------------------------|------------------------|
|------------------------|------------------------|
|-2-----2--4-4--2--2-4-4-|-2-----2--4-4--2--2-4-4-|
|-0-----0--0-0--0--0-0-0-|-0-----0--0-0--0--0-0-0-|
|------------------------|------------------------|


                             E5
    \0.5
    E    +E  E E +E  E E E   W
||-------------------------|------------------|
||o------------------------|------------------|
||-------------------------|------------------|
||--2----(2)-2-2-(2)-2-2-2-|------------------|
||o-0----(0)-0-0-(0)-0-0-0-|------------------|
||-------------------------|------------------|
|
|   E     E  E E  E  E E E   E E E E E E E E
||-------------------------|------------------|
||o------------------------|------------------|
||-------------------------|------------------|
||--2-----2--4-4--2--2-4-4-|------------------|
||o-0-----0--0-0--0--0-0-0-|-2-2-4-4-2-2-4-4--|
||-------------------------|-0-0-0-0-0-0-0-0--|


  A5                                          E5
  Gtrs II, III
  q  Q  H      W         3x E E E E E E E E   E E E E E E E E
|------------|-----------||-----------------|------------------||
|------------|----------o||-----------------|------------------||
|------------|-----------||-----------------|------------------||
|-2----------|-----------||-2-2-4-4-2-2-4-4-|------------------||
|-0----------|----------o||-0-0-0-0-0-0-0-0-|-2-2-4-4-2-2-4-4--||
|------------|-----------||-----------------|-0-0-0-0-0-0-0-0--||


 Outro
  A5        D5         E     A
  Gtr I
  E. S E. S E. S E E   e E E  E  +H       Wx4
|----5----5----5---5-|--------9--(9)----|--------*|
|--------------------|-5-----10-(10)----|--------*|
|------6----7----8---|--------9--(9)----|--------*|
|--------------------|------------------|--------*|
|--------------------|------------------|--------*|
|--------------------|------------------|--------*|
|
| Gtrs II, III
| Q    Q    Q    Q     E E E  E  +H       Wx4
|--------------------|------------------|--------*|
|-----------3----3---|--------2--(2)----|--------*|
|-2----2----2----2---|-1-1-1--2--(2)----|--------*|
|-2----2----0----0---|-2-2-2--2--(2)----|--------*|
|-0----0-------------|-2-2-2--0--(0)----|--------*|
|--------------------|-0-0-0------------|--------*|


Duration Legend
---------------
W - whole; H - half; Q - quarter; E - 8th; S - 16th; T - 32nd; X - 64th; a - acciaccatura
+ - note tied to previous; . - note dotted; .. - note double dotted
Uncapitalized letters represent notes that are staccato (1/2 duration)
Irregular groupings are notated above the duration line
Duration letters will always appear directly above the note/fret number it represents the
duration for.  Duration letters with no fret number below them represent rests.  Multi-
bar rests are notated in the form Wxn, where n is the number of bars to rest for.  Low
melody durations appear below the staff

Tablature Legend
----------------
 h   - hammer-on
 p   - pull-off
 b   - bend
 pb  - pre-bend
 r   - bend release (if no number after the r, then release immediately)
 /\  - slide into or out of (from/to "nowhere")
 s   - legato slide
 S   - shift slide
  - natural harmonic
[n]  - artificial harmonic
n(n) - tapped harmonic
 ~   - vibrato
 tr  - trill
 T   - tap
 TP  - trem. picking
 PM  - palm muting
\n/  - tremolo bar dip; n = amount to dip
 \n  - tremolo bar down
 n/  - tremolo bar up
/n\  - tremolo bar inverted dip
 =   - hold bend; also acts as connecting device for hammers/pulls
 <>  - volume swell (louder/softer)
 x   - on rhythm slash represents muted slash
 o   - on rhythm slash represents single note slash

Misc Legend
-----------
 |  - bar
||  - double bar
||o - repeat start
o|| - repeat end
*|  - double bar (ending)
 :  - bar (freetime)
 $  - Segno
 &  - Coda
Tempo markers -  = BPM(8/16=s8/s16), where s8 = swing 8ths, s16 = swing 16ths
Добавлено: 18.05.2015
Другие материалы по этой песне:
  • Аккорды и текст

Страница создана 01.07.2012
http://primanota.ru/electric-light-orchestra/rock-and-roll-is-king-chords.htm
Привет, Гость.
Предлагаем пройти революционный курс по гитаре.
Подарок от PrimaNota.Ru, забирай!