PrimaNota.ru - самый крупный в мире бесплатный архив песенных текстов, аккордов, табулатур и нот


Electric Light Orchestra - Im Leaving You - аккорды и текст, видео

Регистрация Запомнить меня
Войти через:  Facebook Google Twitter Vk Yandex Mail.ru

Electric Light Orchestra - Im Leaving You - аккорды и текст, видео

Печатать
Просмотров: 146
Авторы музыки: Jeff Lynne
Авторы текста: Jeff Lynne
Im Leaving You
Electric Light Orchestra
---------------------------------------------------------------------------
                I'm Leaving You - Jeff Lynne's ELO
---------------------------------------------------------------------------
Tabbed by: maguri
Tuning: Standard

Jeff Lynne's ELO
I'm Leaving You (2015)
(Lynne)

From: "Alone in the Universe"


---------------------------------------------------------------------------

INTERLUDE
  Ebdim7 (addb13)
          Ebdim7   Dsus4   Dm       F       F7M      Gsus4   G
  1 + 2 + 3 + 4 +  1 + 2 + 3 + 4 +  1 + 2 + 3 + 4 +  1 + 2 + 3 + 4 +
e|7--7--7-5-------|3--3--3-1-------|1--1--1-0-------|----------------|
B|7--7--7-4-------|3--3--3-3-------|1--1--1-1-------|1--1--1-0-------|
G|5--5--5-5-------|2--2--2-2-------|2--2--2-2-------|0--0--0-0-------|
D|----------------|----------------|----------------|0--0--0-0-------|
A|----------------|----------------|----------------|----------------|
E|----------------|----------------|----------------|----------------|
  triplets         triplets         triplets         triplets


ENDING
  C
  1 + 2 + 3 + 4 +  1 
e|0---0-0-0--0--0-|0
B|1---1-1-1--1--1-|1
G|0---0-0-0--0--0-|0
D|2---2-2-2--2--2-|2
A|3---3-3-3--3--3-|3
E|----------------|
          triplets


---------------------------------------------------------------------------
CHORDS

          E-A-D-G-B-e
Cdim7     x-3-4-2-4-x 
Em/B      x-2-x-0-0-0
G/B       x-2-0-0-0-3
C/G       3-x-2-0-1-0
A/E       0-x-2-2-2-0  or (coming up from Dm): x-x-2-2-2-0
Ebdim7    x-x-1-2-1-2
C/E       0-x-2-0-1-0
Dm/F      x-x-3-2-3-1

---------------------------------------------------------------------------

INTRO 
| Cdim7 | C | Cdim7 | C |


VERSE
Cdim7   C
 Golden days
        Cdim7  C
Drift into the haze
Em/B             F
  And times gone by
     Gsus4        G
When days were so young


VERSE
Cdim7     C
Now those days
        Cdim7     C
Have all slipped away
Em/B               F
  You think you're going to leave me
Gsus4     G 
All on my own


BRIDGE
       Cdim7       Dm
You're leaving me
       F       G
You're leaving me


CHORUS
    C      G/B      Am   C/G
But just before you go
        F         A/E        Dm    Ebdim7
There's something you should know
               C/E  Am
I've found somebody new
        Dm    A/E  Dm/F G6  | C  | C |
And I'm lea - ea - ea - ving you  (break)


VERSE
Cdim7   C
 Golden times
      Cdim7    C
Roll across my mind
Em/B            F
  And then they fly away
Gsus4    G 
Into the night


VERSE
Cdim7      C
 New day's gone
      Cdim7  C
And I see it won't
Em/B         F
 I will remember you looking
 Gsus4       G 
Away from it all


INTERLUDE (see above)
| Ebdim7 (addb13)  Ebdim7 | Dsus4 Dm | F F7M   | Gsus4 G |


CHORUS
    C      G/B      Am   C/G
But just before you go
        F         A/E        Dm    Ebdim7
There's something you should know
               C/E  Am
I've found somebody new
        Dm    A/E  Dm/F G6   C   | Ebdim7 |
And I'm lea - ea - ea - ving you  


CODA
Dm    A/E  Dm/F G6   C   | Am |
Lea - ea - ea - ving you  
Dm    A/E  Fm   G6  | C   | C
Lea - ea - ea - ving you  





Добавлено: 25.02.2016
Другие материалы по этой песне:
  • Аккорды и текст

Страница создана 25.02.2016
http://primanota.ru/electric-light-orchestra/im-leaving-you-chords.htm
Привет, Гость.
Предлагаем пройти революционный курс по гитаре.
Подарок от PrimaNota.Ru, забирай!