PrimaNota.ru - самый крупный в мире бесплатный архив песенных текстов, аккордов, табулатур и нот


Electric Boys - March Of The Spirits - таба, бас-таба, видео

Регистрация Запомнить меня
Войти через:  Facebook Google Twitter Vk Yandex Mail.ru

Electric Boys - March Of The Spirits - таба, бас-таба, видео

Печатать
Просмотров: 124
-----------------------------------------------------------------------------
                  March of the Spirits - Electric Boys    (GUITAR)
                       
-----------------------------------------------------------------------------
Tabbed by: Scotto10

Tuning: Standard

Info about the band: 
http://www.allmusic.com/artist/electric-boys-p12865
&
http://www.myspace.com/electricboysofficial
&
http://www.electricboys.com/website/?p=765
=============================================================================
                        
Guitar 1



             S  S  S  S  S  S  S  S  S  S  S  S  S  S  S  S  
E||-------|-------------------------------------------------|
B||-------|--4h-5p-4h-5p-4h-5p-4h-5p-4h-5p-4h-5p-4h-5p-4h-5-|
G||-------|-------------------------------------------------|
D||-------|-------------------------------------------------|
A||-------|-------------------------------------------------|
E||-------|-------------------------------------------------|


  S  S  S  S  S  S  S  S  S  S  S  S  S  S  S  S  
-------------------------------------------------|
--4h-5p-4h-5p-4h-5p-4h-5p-4h-5p-4h-5p-4h-5p-4h-5-|
-------------------------------------------------|
-------------------------------------------------|
-------------------------------------------------|
-------------------------------------------------|


  S  S  S  S  S  S  S  S  S  S  S  S  S  S  S  S  
-------------------------------------------------|
--4h-5p-4h-5p-4h-5p-4h-5p-4h-5p-4h-5p-4h-5p-4h-5-|
-------------------------------------------------|
-------------------------------------------------|
-------------------------------------------------|
-------------------------------------------------|


  S  S  S  S  S  S  S  S  S  S  S  S  S  S  S  S  
-------------------------------------------------|
--4h-5p-4h-5p-4h-5p-4h-5p-4h-5p-4h-5p-4h-5p-4h-5-|
-------------------------------------------------|
-------------------------------------------------|
-------------------------------------------------|
-------------------------------------------------|


  S  S  S  S  S  S  S  S  S  S  S  S  S  S  S  S  
-------------------------------------------------|
--4h-5p-4h-5p-4h-5p-4h-5p-4h-5p-4h-5p-4h-5p-4h-5-|
-------------------------------------------------|
-------------------------------------------------|
-------------------------------------------------|
-------------------------------------------------|


  S  S  S  S  S  S  S  S  S  S  S  S  S  S  S  S  
-------------------------------------------------|
--4h-5p-4h-5p-4h-5p-4h-5p-4h-5p-4h-5p-4h-5p-4h-5-|
-------------------------------------------------|
-------------------------------------------------|
-------------------------------------------------|
-------------------------------------------------|


  S  S  S  S  S  S  S  S  S  S  S  S  S  S  S  S  
-------------------------------------------------|
--4h-5p-4h-5p-4h-5p-4h-5p-4h-5p-4h-5p-4h-5p-4h-5-|
-------------------------------------------------|
-------------------------------------------------|
-------------------------------------------------|
-------------------------------------------------|


  S  S  S  S  S  S  S  S  S  S  S  S  S  S  S  S    S S S S E  E  E  E  E  E   
-------------------------------------------------|----------------------------|
--4h-5p-4h-5p-4h-5p-4h-5p-4h-5p-4h-5p-4h-5p-4h-5-|----------------------------|
-------------------------------------------------|----------------------------|
-------------------------------------------------|----------------------------|
-------------------------------------------------|------2-1-L--2--1--2--1--2--|
-------------------------------------------------|--0-4-----------------------|


  S S S S E  E  E  E  E  E     S S S S E  E  E  E  E  E   
----------------------------|----------------------------|
----------------------------|----------------------------|
----------------------------|----------------------------|
----------------------------|----------------------------|
------2-1-L--2--4--2--1--2--|------2-1-L--2--1--2--1--2--|
--0-4-----------------------|--0-4-----------------------|


  S S S S E  E  E  E  E  E     S S S S E  E  E  E  E  E   
----------------------------|----------------------------|
----------------------------|----------------------------|
----------------------------|----------------------------|
----------------------------|----------------------------|
------2-1-L--2--4--2--1--2--|------2-1-L--2--1--2--1--2--|
--0-4-----------------------|--0-4-----------------------|


  S S S S E  E  E  E  E  E     S S S S E  E  E  E  E  E   
----------------------------|----------------------------|
----------------------------|----------------------------|
----------------------------|----------------------------|
----------------------------|----------------------------|
------2-1-L--2--4--2--1--2--|------2-1-L--2--1--2--1--2--|
--0-4-----------------------|--0-4-----------------------|


                               PM PM PM PM PM PM PM PM PM PM  
  S S S S E  E  E  E  E  E     E  E  E  S  S  S  S  E  E  E   
----------------------------|--------------------------------|
----------------------------|--------------------------------|
----------------------------|--------------------------------|
----------------------------|--------------------------------|
------2-1-L--2--4--2--1--2--|--------------------------------|
--0-4-----------------------|--0--0--0--0--0--0--0--0--0--0--|


  PM PM PM PM PM PM PM PM PM PM    PM PM PM PM PM PM PM PM PM PM  
  E  E  E  S  S  S  S  E  E  E     E  E  E  S  S  S  S  E  E  E   
--------------------------------|--------------------------------|
--------------------------------|--------------------------------|
--------------------------------|--------------------------------|
--------------------------------|--------------------------------|
--------------------------------|--------------------------------|
--0--0--0--0--0--0--0--0--0--0--|--0--0--0--0--0--0--0--0--0--0--|


  PM PM PM PM PM PM PM PM PM PM    PM PM PM PM PM PM PM PM PM PM  
  E  E  E  S  S  S  S  E  E  E     E  E  E  S  S  S  S  E  E  E   
--------------------------------|--------------------------------|
--------------------------------|--------------------------------|
--------------------------------|--------------------------------|
--------------------------------|--------------------------------|
--------------------------------|--------------------------------|
--0--0--0--0--0--0--0--0--0--0--|--0--0--0--0--0--0--0--0--0--0--|


  PM PM PM PM PM PM PM PM PM PM    PM PM PM PM PM PM PM PM PM PM  
  E  E  E  S  S  S  S  E  E  E     E  E  E  S  S  S  S  E  E  E   
--------------------------------|--------------------------------|
--------------------------------|--------------------------------|
--------------------------------|--------------------------------|
--------------------------------|--------------------------------|
--------------------------------|--------------------------------|
--0--0--0--0--0--0--0--0--0--0--|--0--0--0--0--0--0--0--0--0--0--|


  PM PM PM PM PM PM PM PM PM PM    PM PM PM PM PM PM PM PM PM PM  
  E  E  E  S  S  S  S  E  E  E     E  E  E  S  S  S  S  E  E  E   
--------------------------------|--------------------------------|
--------------------------------|--------------------------------|
--------------------------------|--------------------------------|
--------------------------------|--------------------------------|
--------------------------------|--------------------------------|
--0--0--0--0--0--0--0--0--0--0--|--0--0--0--0--0--0--0--0--0--0--|


  PM PM PM PM PM PM PM PM PM PM    PM PM PM PM PM PM PM PM PM PM  
  E  E  E  S  S  S  S  E  E  E     E  E  E  S  S  S  S  E  E  E   
--------------------------------|--------------------------------|
--------------------------------|--------------------------------|
--------------------------------|--------------------------------|
--------------------------------|--------------------------------|
--------------------------------|--------------------------------|
--0--0--0--0--0--0--0--0--0--0--|--0--0--0--0--0--0--0--0--0--0--|


  PM PM PM PM PM PM PM PM PM PM    PM PM PM PM PM PM PM PM PM PM  
  E  E  E  S  S  S  S  E  E  E     E  E  E  S  S  S  S  E  E  E   
--------------------------------|--------------------------------|
--------------------------------|--------------------------------|
--------------------------------|--------------------------------|
--------------------------------|--------------------------------|
--------------------------------|--------------------------------|
--0--0--0--0--0--0--0--0--0--0--|--0--0--0--0--0--0--0--0--0--0--|


  PM PM PM PM PM PM PM PM PM PM    PM PM PM PM PM PM PM PM PM PM  
  E  E  E  S  S  S  S  E  E  E     E  E  E  S  S  S  S  E  E  E   
--------------------------------|--------------------------------|
--------------------------------|--------------------------------|
--------------------------------|--------------------------------|
--------------------------------|--------------------------------|
--------------------------------|--------------------------------|
--0--0--0--0--0--0--0--0--0--0--|--0--0--0--0--0--0--0--0--0--0--|


  PM PM PM PM PM PM PM PM PM PM    PM PM PM PM PM PM PM PM PM PM  
  E  E  E  S  S  S  S  E  E  E     E  E  E  S  S  S  S  E  E  E   
--------------------------------|--------------------------------|
--------------------------------|--------------------------------|
--------------------------------|--------------------------------|
--------------------------------|--------------------------------|
--------------------------------|--------------------------------|
--0--0--0--0--0--0--0--0--0--0--|--0--0--0--0--0--0--0--0--0--0--|


  PM PM PM PM PM PM PM PM PM PM    PM PM PM PM PM PM PM PM PM PM  
  E  E  E  S  S  S  S  E  E  E     E  E  E  S  S  S  S  E  E  E   
--------------------------------|--------------------------------|
--------------------------------|--------------------------------|
--------------------------------|--------------------------------|
--------------------------------|--------------------------------|
--------------------------------|--------------------------------|
--0--0--0--0--0--0--0--0--0--0--|--0--0--0--0--0--0--0--0--0--0--|


  PM PM PM PM PM PM PM PM PM PM                               
  E  E  E  S  S  S  S  E  E  E     S S S S E  E  E  E  E  E   
--------------------------------|----------------------------|
--------------------------------|----------------------------|
--------------------------------|----------------------------|
--------------------------------|----------------------------|
--------------------------------|------2-1-L--2--1--2--1--2--|
--0--0--0--0--0--0--0--0--0--0--|--0-4-----------------------|


  S S S S E  E  E  E  E  E     S S S S E  E  E  E  E  E   
----------------------------|----------------------------|
----------------------------|----------------------------|
----------------------------|----------------------------|
----------------------------|----------------------------|
------2-1-L--2--4--2--1--2--|------2-1-L--2--1--2--1--2--|
--0-4-----------------------|--0-4-----------------------|


  S S S S E  E  E  E  E  E     S S S S E  E  E  E  E  E   
----------------------------|----------------------------|
----------------------------|----------------------------|
----------------------------|----------------------------|
----------------------------|----------------------------|
------2-1-L--2--4--2--1--2--|------2-1-L--2--1--2--1--2--|
--0-4-----------------------|--0-4-----------------------|


  S S S S E  E  E  E  E  E     S S S S E  E  E  E  E  E   
----------------------------|----------------------------|
----------------------------|----------------------------|
----------------------------|----------------------------|
----------------------------|----------------------------|
------2-1-L--2--4--2--1--2--|------2-1-L--2--1--2--1--2--|
--0-4-----------------------|--0-4-----------------------|


  S S S S E  E  E  E  E  E     W                         
----------------------------|-------------------|-------|
----------------------------|-------------------|-------|
----------------------------|-------------------|-------|
----------------------------|-------------------|-------|
------2-1-L--2--4--2--1--2--|-------------------|-------|
--0-4-----------------------|--0----------------|-------|


  PM PM PM PM PM PM PM PM PM PM    PM PM PM PM PM PM PM PM PM PM  
  E  E  E  S  S  S  S  E  E  E     E  E  E  S  S  S  S  E  E  E   
--------------------------------|--------------------------------|
--------------------------------|--------------------------------|
--------------------------------|--------------------------------|
--------------------------------|--------------------------------|
--------------------------------|--------------------------------|
--2--2--2--2--2--2--2--2--2--2--|--2--2--2--2--2--2--2--2--2--2--|


  PM PM PM PM PM PM PM PM PM PM    PM PM PM PM PM PM PM PM PM PM  
  E  E  E  S  S  S  S  E  E  E     E  E  E  S  S  S  S  E  E  E   
--------------------------------|--------------------------------|
--------------------------------|--------------------------------|
--------------------------------|--------------------------------|
--------------------------------|--------------------------------|
--------------------------------|--------------------------------|
--2--2--2--2--2--2--2--2--2--2--|--2--2--2--2--2--2--2--2--2--2--|


  PM PM PM PM PM PM PM PM PM PM    PM PM PM PM PM PM PM PM PM PM  
  E  E  E  S  S  S  S  E  E  E     E  E  E  S  S  S  S  E  E  E   
--------------------------------|--------------------------------|
--------------------------------|--------------------------------|
--------------------------------|--------------------------------|
--------------------------------|--------------------------------|
--------------------------------|--------------------------------|
--2--2--2--2--2--2--2--2--2--2--|--2--2--2--2--2--2--2--2--2--2--|


  PM PM PM PM PM PM PM PM PM PM    PM PM PM PM PM PM PM PM PM PM  
  E  E  E  S  S  S  S  E  E  E     E  E  E  S  S  S  S  E  E  E   
--------------------------------|--------------------------------|
--------------------------------|--------------------------------|
--------------------------------|--------------------------------|
--------------------------------|--------------------------------|
--------------------------------|--------------------------------|
--2--2--2--2--2--2--2--2--2--2--|--2--2--2--2--2--2--2--2--2--2--|


  PM PM PM PM PM PM PM PM PM PM    PM PM PM PM PM PM PM PM PM PM  
  E  E  E  S  S  S  S  E  E  E     E  E  E  S  S  S  S  E  E  E   
--------------------------------|--------------------------------|
--------------------------------|--------------------------------|
--------------------------------|--------------------------------|
--------------------------------|--------------------------------|
--------------------------------|--------------------------------|
--2--2--2--2--2--2--2--2--2--2--|--2--2--2--2--2--2--2--2--2--2--|


  PM PM PM PM PM PM PM PM PM PM    PM PM PM PM PM PM PM PM PM PM  
  E  E  E  S  S  S  S  E  E  E     E  E  E  S  S  S  S  E  E  E   
--------------------------------|--------------------------------|
--------------------------------|--------------------------------|
--------------------------------|--------------------------------|
--------------------------------|--------------------------------|
--------------------------------|--------------------------------|
--2--2--2--2--2--2--2--2--2--2--|--2--2--2--2--2--2--2--2--2--2--|


  PM PM PM PM PM PM PM PM PM PM    PM PM PM PM PM PM PM PM PM PM  
  E  E  E  S  S  S  S  E  E  E     E  E  E  S  S  S  S  E  E  E   
--------------------------------|--------------------------------|
--------------------------------|--------------------------------|
--------------------------------|--------------------------------|
--------------------------------|--------------------------------|
--------------------------------|--------------------------------|
--2--2--2--2--2--2--2--2--2--2--|--2--2--2--2--2--2--2--2--2--2--|


  PM PM PM PM PM PM PM PM PM PM    PM PM PM PM PM PM PM PM PM PM  
  E  E  E  S  S  S  S  E  E  E     E  E  E  S  S  S  S  E  E  E   
--------------------------------|--------------------------------|
--------------------------------|--------------------------------|
--------------------------------|--------------------------------|
--------------------------------|--------------------------------|
--------------------------------|--------------------------------|
--2--2--2--2--2--2--2--2--2--2--|--2--2--2--2--2--2--2--2--2--2--|


  PM PM PM PM PM PM PM PM PM PM    PM PM PM PM PM PM PM PM PM PM  
  E  E  E  S  S  S  S  E  E  E     E  E  E  S  S  S  S  E  E  E   
--------------------------------|--------------------------------|
--------------------------------|--------------------------------|
--------------------------------|--------------------------------|
--------------------------------|--------------------------------|
--------------------------------|--------------------------------|
--2--2--2--2--2--2--2--2--2--2--|--2--2--2--2--2--2--2--2--2--2--|


  S S S S E  E  E  E  E  E     S S S S E  E  E  E  E  E   
----------------------------|----------------------------|
----------------------------|----------------------------|
----------------------------|----------------------------|
----------------------------|----------------------------|
------2-1-L--2--1--2--1--2--|------2-1-L--2--4--2--1--2--|
--0-4-----------------------|--0-4-----------------------|


  S S S S E  E  E  E  E  E     S S S S E  E  E  E  E  E   
----------------------------|----------------------------|
----------------------------|----------------------------|
----------------------------|----------------------------|
----------------------------|----------------------------|
------2-1-L--2--1--2--1--2--|------2-1-L--2--4--2--1--2--|
--0-4-----------------------|--0-4-----------------------|


  S S S S E  E  E  E  E  E     S S S S E  E  E  E  E  E   
----------------------------|----------------------------|
----------------------------|----------------------------|
----------------------------|----------------------------|
----------------------------|----------------------------|
------2-1-L--2--1--2--1--2--|------2-1-L--2--4--2--1--2--|
--0-4-----------------------|--0-4-----------------------|


  S S S S E  E  E  E  E  E     S S S S E  E  E  E  E  E   
----------------------------|----------------------------|
----------------------------|----------------------------|
----------------------------|----------------------------|
----------------------------|----------------------------|
------2-1-L--2--1--2--1--2--|------2-1-L--2--4--2--1--2--|
--0-4-----------------------|--0-4-----------------------|


  S  S  S  S  S  S  S  S  S  S  S  S  S  S  S  S    Q    H        Q      
-------------------------------------------------|---------------------||
--4h-5p-4h-5p-4h-5p-4h-5p-4h-5p-4h-5p-4h-5p-4h-5-|---------------------||
-------------------------------------------------|---------------------||
-------------------------------------------------|--2------------------||
-------------------------------------------------|--2------------------||
-------------------------------------------------|--0------------------||


===================================================================
===================================================================
===================================================================


Guitar 2



                             S  S S  S S  S S  S S  S S  S S  S S  S  
E||-------|-------|-------|--4p-0------4p-0------4p-0------4p-0------|
B||-------|-------|-------|-------4p-0------4p-0------4p-0------4p-0-|
G||-------|-------|-------|------------------------------------------|
D||-------|-------|-------|------------------------------------------|
A||-------|-------|-------|------------------------------------------|
E||-------|-------|-------|------------------------------------------|


  S  S S  S S  S S  S S  S S  S S  S S  S  
--4p-0------4p-0------4p-0------4p-0------|
-------4p-0------4p-0------4p-0------4p-0-|
------------------------------------------|
------------------------------------------|
------------------------------------------|
------------------------------------------|


  S  S S  S S  S S  S S  S S  S S  S S  S  
--4p-0------4p-0------4p-0------4p-0------|
-------4p-0------4p-0------4p-0------4p-0-|
------------------------------------------|
------------------------------------------|
------------------------------------------|
------------------------------------------|


  S  S S  S S  S S  S S  S S  S S  S S  S  
--4p-0------4p-0------4p-0------4p-0------|
-------4p-0------4p-0------4p-0------4p-0-|
------------------------------------------|
------------------------------------------|
------------------------------------------|
------------------------------------------|


  S  S S  S S  S S  S S  S S  S S  S S  S  
--4p-0------4p-0------4p-0------4p-0------|
-------4p-0------4p-0------4p-0------4p-0-|
------------------------------------------|
------------------------------------------|
------------------------------------------|
------------------------------------------|


  S  S S  S S  S S  S S  S S  S S  S S  S                                  
--4p-0------4p-0------4p-0------4p-0------|-------|-------|-------|-------|
-------4p-0------4p-0------4p-0------4p-0-|-------|-------|-------|-------|
------------------------------------------|-------|-------|-------|-------|
------------------------------------------|-------|-------|-------|-------|
------------------------------------------|-------|-------|-------|-------|
------------------------------------------|-------|-------|-------|-------|


          \1/                        NH            \2                         
  Q    E  E   H           H          H             H.           Q             
-----------------------|----------------------|----------------------|-------|
-----------------------|----------------------|----------------------|-------|
-----------------------|-----------<>7--------|--<>L-----------------|-------|
-----------------------|----------------------|----------------------|-------|
-----------------------|----------------------|----------------------|-------|
----------0---L--------|----------------------|----------------------|-------|


                              \1/                 \1/               
                              W                   W                 
-------|-------------------|-------------------|-------------------|
-------|-------------------|-------------------|-------------------|
-------|-------------------|-------------------|-------------------|
-------|-------------------|-------------------|-------------------|
-------|-------------------|-------------------|-------------------|
-------|-------------------|--0----------------|--0----------------|


  Q.     E  E  E  E  E     E  Q.     E  E  E  E     E  Q.     E  E    E  E   
------------------------|------------------------|--------------------------|
------------------------|------------------------|--------------------------|
------------------4--3--|--L---------------3--2--|--L-----------------------|
--2---------2--6--------|-----4------L-----------|-----3------L-------------|
---------2--------------|---------------4--------|---------------2--2g4--2--|
------------------------|------------------------|--------------------------|


                                                  \1/                           
  Q    S S E   H           Q.     E  E    E  E    E     E  Q    E  E  E  E  E   
------------------------|----------------------------|-------------------------|
------------------------|----------------------------|-------------------------|
------------------------|--------------------4--4g6--|--L--3-------------4--3--|
------------------------|--2---------2--4g6----------|----------4--L-----------|
--L----L-4--------------|---------2------------------|----------------4--------|
-----------2b--0--------|----------------------------|-------------------------|


     \1/                                                  
                  |--3-| |--3--|                          
  E  E   Q    E   S  S S E  E  E     H.           S E.    
----------------------------------|----------------------|
--------------8b------------------|----------------------|
--L--5---L--------9p-7---9--------|----------------------|
-----------------------9----7--5--|----------------------|
----------------------------------|--7------------L------|
----------------------------------|-----------------2b---|


  Q.      E   E   E   E    E      E   Q.      E   E   E    E   
------------------------------|-------------------------------|
------------------------------|-------------------------------|
---------------------18s--15--|---L------------------18s--14--|
-------------14--16-----------|------16-------L---------------|
---------14-------------------|------------------16-----------|
--0---------------------------|-------------------------------|


   E   Q.       E   E   E   S   S      Q.      S   S   S S S  S S S  E   
-----------------------------------|------------------------------------|
-----------------------------------|------------------------------------|
---L-----------------------13s-14s-|--13-------9s-11s--9---7s-6---4s-2--|
------15~-------L--15\-------------|------------------------------------|
---------------------------14s-16s-|--14------11s-12s-11---9s-7---5s-4--|
-----------------------------------|------------------------------------|


  Q.     E  E  E  E    E     E  Q    Q.     E  E   
--------------------------|-----------------------|
--------------------------|-----------------------|
--1-----------------------|-----------------------|
--------------------------|-----------------------|
--2------2--------2--2g4--|--L--1-----------------|
------------0--4----------|----------2------L--0--|


    E   Q      S  S  E    S  E    S  E      S  E    S  E    S  S  Q.        E   
-------------------------19-------------|-----19b--19--------------------------|
-------17~-------17-19b-----19b--19-17--|---L---------17~-----17---------------|
--/18---------18------------------------|------------------18----19b~-------L--|
----------------------------------------|--------------------------------------|
----------------------------------------|--------------------------------------|
----------------------------------------|--------------------------------------|


                        NH          \1/                          \1/        
          H        E    Q.          W                   H        Q    Q     
-------|-----------------------|---------------------|---------------------|
-------|-----------------------|---------------------|---------------------|
-------|--------------<>3------|--<>L----------------|---------------------|
-------|-----------------------|---------------------|---------------------|
-------|-----------------------|---------------------|---------------------|
-------|-----------------------|---------------------|-----------0---------|


                  \1/  NH             \1/               
  H        Q      E    E     H        H                 
--------------------------|--------------------|-------|
--------------------------|--------------------|-------|
----------------<>5--<>L--|--L-----------------|-------|
--------------------------|--------------------|-------|
--------------------------|--------------------|-------|
--------------------------|-----------0--------|-------|


    NH         \1/    NH                                            
    H          Q      Q       W                   W                 
--<>7--------<>7----<>L----|-------------------|-------------------|
---------------------------|-------------------|-------------------|
---------------------------|-------------------|-------------------|
---------------------------|--2----------------|--L----------------|
---------------------------|--2----------------|--L----------------|
---------------------------|--0----------------|--L----------------|


   S  T   T   S  S  S  S  S  S  S  S  S  S  S   E   S  
------------------------------------------------------|
--19-14h-19p-14----14-------14------------------------|
----------------15----15-------15---------------------|
-------------------------16-------16----------/16--15-|
-------------------------------------16-14-13---------|
------------------------------------------------------|


   S  H         E.   Q         Q.      E   E   E   E   E    
---------------------------|-------------------------------|
---------------------------|-------------------------------|
---------------------------|----------------------18--17~--|
---L-14---------L----Lb----|--16----------16--20-----------|
---------------------------|----------16-------------------|
---------------------------|-------------------------------|


   E   Q.       E   E   E   E      E   Q.      E   S  S  S   S  E    
-------------------------------|------------------------------------|
-------------------------------|------------------------------------|
---L-------------------17--16--|---L--------------------------------|
------18~-------L--------------|------17-------L--------------------|
-------------------18----------|------------------16-16-16h-18-16~--|
-------------------------------|------------------------------------|


   Q     S   S  S   S   S  S  S   S  Q        Q.       E   E   E   E      E    
------------------------------------------|-----------------------------------|
------------------------------------------|-----------------------------------|
------------------------------------------|-----------------------18--18g20~--|
------------------------------------------|--16~----------16--20--------------|
---L-----------16h-18p-16-----------------|-----------16----------------------|
--------16h-18------------18-16h-18--L----|-----------------------------------|


   E   Q      E    E   E   E    E    
------------------------------------|
------------------------------------|
---L--17~-----------------18b--16~--|
-------------18~---L----------------|
----------------------18------------|
------------------------------------|


   Q.      S.  T   T  S  S  T   T   T   T   T  E.    
----------------------------------------------------|
----------------------------------------------------|
---L------18b-18p-16-15-16-15h-16h-18p-16p-15-------|
----------------------------------------------18b---|
----------------------------------------------------|
----------------------------------------------------|


   E     T  T   T  T  Q      E   E   Q        Q    S S  S S S  S E  S S  S S  
-------------------------------------------|---------------------------------|
-------------------------------------------|-------------------------------2-|
-------------------------------------------|--------------------------2h-3---|
---Lpb---L-18p-16----16~-----L\------------|----------------4p-2-4--L--------|
------------------18-----------------------|--------------4------------------|
---------------------------------2--14\----|--2----L-5h-6--------------------|


  S  S Q.      Q    S  S E     S E.   E   S S Q    S E.     
--4s-6-------------------2--|--2-4b---Lb--4-2--------------|
-------4~------L----2h-4----|-----------------5----2-------|
----------------------------|------------------------4br---|
----------------------------|------------------------------|
----------------------------|------------------------------|
----------------------------|------------------------------|


       |--3--|  |--3--|                                           
  Q    E  E  E  E  E  E  E  E      E  E   E   S S S S S  S E  E   
--------------------------------|--------------------------2--2--|
--------------------------------|-----4b-------------------------|
--3----3------------------------|-----4b--4b--3-------2h-3-------|
----------4--2------------------|---------------4-2-4------------|
----------------4--3--2--1--9\--|--------------------------------|
--------------------------------|--------------------------------|


  E  E.   S  S S S E.  E  E     E  E  S  S S S S S E  E   S S   
--4--------------------------|-----------------7---7--9b--9----|
-----4b---Lp-2-3-4-----------|---------------7---7----------9b-|
-------------------3---L--1--|--3--4--L----8-------------------|
-----------------------------|----------/9---------------------|
-----------------------------|---------------------------------|
-----------------------------|---------------------------------|


                                                         NH     \1/           
  S  S E   S  S  S  S S E.   E  E                        Q      H.            
------------------------------------|-------|-------|------------------------|
--Lb-9-7~--9b-9b-9p-7---7~---L--L\--|-------|-------|------------------------|
----------------------9-------------|-------|-------|--<>7----<>L------------|
------------------------------------|-------|-------|------------------------|
------------------------------------|-------|-------|------------------------|
------------------------------------|-------|-------|------------------------|


                          H        H            Q    H        Q     
-------|-------|-------|---------------------|---------------------|
-------|-------|-------|---------------------|---------------------|
-------|-------|-------|---------------------|---------------------|
-------|-------|-------|---------------------|---------------------|
-------|-------|-------|---------------------|---------------------|
-------|-------|-------|-----------0~--------|--L------------------|


  S  S S  S S  S S  S S  S S  S S  S S  S    Q    H        Q      
--4p-0------4p-0------4p-0------4p-0------|---------------------||
-------4p-0------4p-0------4p-0------4p-0-|---------------------||
------------------------------------------|---------------------||
------------------------------------------|--2------------------||
------------------------------------------|--2------------------||
------------------------------------------|--0------------------||




Duration Legend
---------------
W - whole
H - half
Q - quarter
E - 8th
S - 16th
T - 32nd
X - 64th
. - note dotted
|-n-|  - n-tuplets


Tablature Legend
----------------
L - tied note
x - dead note
g - grace note
(n) - ghost note
> - accentuded note
NH - natural harmonic
AH - artificial harmonic
TH - tapped harmonic
SH - semi harmonic
PH - pitch harmonic
h - hammer on
p - pull off
b - bend
br - bendRelease
pb - preBend
pbr - preBendRelease
brb - bendReleaseBend
\n/ - tremolo bar dip
\n - tremolo bar dive
-/n - tremolo bar Release up
/n\ - tremolo bar inverted dip
/n - tremolo bar return
-\n - tremolo bar Release down
S - shift slide
s - legato slide
/ -  slide into from below or out of upwards
\ -  slide into from above or out of downwards
~ - vibrato
W - wide vibrato
tr - trill
TP - tremolo picking
T - tapping
S - slap
P - pop
< - fade in
^ - brush up
v - brush down

Добавлено: 29.05.2012
Вам также может быть интересно:
Другие материалы по этой песне:

Страница создана 25.05.2012
http://primanota.ru/electric-boys/march-of-the-spirits-chords.htm
Привет, Гость.
Предлагаем пройти революционный курс по гитаре.
Подарок от PrimaNota.Ru, забирай!