PrimaNota.ru - самый крупный в мире бесплатный архив песенных текстов, аккордов, табулатур и нот


Electra - Unforgiven - аккорды и текст, видео

Регистрация Запомнить меня
Войти через:  Facebook Google Twitter Vk Yandex Mail.ru

Electra - Unforgiven - аккорды и текст, видео

Печатать
Просмотров: 117
Unforgiven
Electra
Hi, this is "Unforgiven" by Israeli spectacular rock band "Electra". 
Official website: http://www.electramusic.com
Enjoy!

Chords used:
F#m 244222
D   x57775
C#  x46664
A   577655
E   x79997
B   x24442
Ab  466544

Intro:
A Ab F#m
A Ab F#m
A      Ab
Will I be

Verse 1:
F#m
Forgiven
               D    C#
Standing in the Hallway
               F#m
Staring in the mirror
            D         C#
Fearing what it might say

Bridge:
B
I am not to blame I'm not to be blamed
    D
of putting you to shame putting you to shame
   A
I know
   E
I know

--------------------|
---9--------10------|
-----9--------10----|
-------9---------10-|
-7-------8----------|
--------------------|

Chorus:
F#m        D         C#
    Seven minutes to go
                 A  D A
Standing at the door  fading slowly
        F#m              E
Saw a promise in us but once and now I
A           C#
  I got so bored with shame

too numb to call your name to call your

Verse 2:
F#m
name
                   D       C#
I bet that we could have a ball
              F#m
My mind begs please
                 D       C#
please forget you had it all

[PLAY BRIDGE AGAIN]
[PLAY CHORUS AGAIN]

Solo Riff:
F#m F#m
D C#
(play twice before solo, and keep playing over solo)

Solo:
e|---------------------------------------------------------------------------|
B|---------7^--------------------6^-------------7----------7-7-7-7/14--------|
G|-------------------7^-----------------------6----------6-------------------|
D|-4^------------------------------------------------------------------------|
A|---------------------------------------------------------------------------|
E|---------------------------------------------------------------------------|

e|-----------------------------------------------7---------------------------|
B|----14-14-12-10-14~--------7-6-7-9-7-9-10-9-10---10-9-10---9---7-----------|
G|-------------------------6-------------------------------------------------|
D|---------------------------------------------------------------------------|
A|---------------------------------------------------------------------------|
E|---------------------------------------------------------------------------|

e|-------------------------------------------------5-5-7-5-4-----------------|
B|-3-3-3-2---6-------6-6-7-6------6-7-6--------6-7---------------------------|
G|---------4-----------------6----------6------------------------------------|
D|---------------------------------------------------------------------------|
A|---------------------------------------------------------------------------|
E|---------------------------------------------------------------------------|
(^ = pick several times quickly, / = slide up, ~ = vibrato)

F#m
    Unforgiven
                   D       C#
I bet that we could have a ball
              F#m
My mind begs please
                 D       C#
please forget you had it all

B D
   A
I know
   E
I know

[PLAY CHORUS (until "I got so bored with shame")]
[PLAY CHORUS]

End:
 C#  B   A   Ab F#m
Name to call yo-ur

Oh what a song. Enjoy!
Добавлено: 26.02.2012
Вам также может быть интересно:
Другие материалы по этой песне:
  • Аккорды и текст

Страница создана 26.02.2012
http://primanota.ru/electra/unforgiven-chords.htm
Привет, Гость.
Предлагаем пройти революционный курс по гитаре.
Подарок от PrimaNota.Ru, забирай!