PrimaNota.ru - самый крупный в мире бесплатный архив песенных текстов, аккордов, табулатур и нот


Elbow - Neat Little Rows - аккорды и текст, видео

Регистрация Запомнить меня
Войти через:  Facebook Google Twitter Vk Yandex Mail.ru

Elbow - Neat Little Rows - аккорды и текст, видео

Печатать
Просмотров: 146
Авторы музыки: Elbow
Авторы текста: Guy Garvey
Neat Little Rows
Elbow
--------------------------------------------------------------------------
	                    Neat Little Rows - Elbow
--------------------------------------------------------------------------
Tabbed by:tom murphy

Tuning: Drop D




D (riff 1)
My high priestess folded neatly, back in your box, oh lord
Call the song he sang so sweetly, back in your box, oh lord
Found myself astride a Tiger lifting my head, just like you said
Drown me now in down of eider, get me to bed, Oh.... lord

D*              E*      G*
Lay my bones in cobblestones
G*              E*             D*
Lay my bones in neat little rows
D*              E*      G*
Lay my bones in cobblestones
G*              E*             D (riff 1)
Lay my bones in neat little rows

D (riff 1)
Angels and idols, spiraling wild, winding you necks, oh lord
Landed gentry, ride on behind me, winding your necks, oh lord
Smokey progress, backroom sages, let me back in, put back the pin
'Cause now I found those sought out pages, can't read the text, oh.... no


D*              E*         G*
Lay my bones in cobblestones
G*              E*            D*
Lay my bones in neat little rows
D*              E*         G*
Lay my bones in cobblestones
G*              E*             D*
Lay my bones in neat little rows

D*    E*    G*    E*  (x2)

D*    E*    G*    E*
In the house, where they grew you
There were secrets, and mistakes
That the eyes, that see through you
Would give anything, to erase

But picture they're counting your fingers
Waiting for the focus of your eyes
No don't, don't point fingers
Fingers are for pointing at the sky
No don't, don't point fingers
Fingers are for pointing at the sky

Nah, da, da, da, da, da, da, da
Nah, da, da, da, da, da, da, da
Nah, da, da, da, da, da, da, da
Lay my bones in cobblestones

Nah, da, da, da, da, da, da, da
Nah, da, da, da, da, da, da, da
Nah, da, da, da, da, da, da, da
Lay my bones in neat little rows


D*    E**    G**    E**    D**
Nah, da, da, da, da, da, da, da
Nah, da, da, da, da, da, da, da
Nah, da, da, da, da, da, da, da
Lay my bones in cobblestones

Nah, da, da, da, da, da, da, da
Nah, da, da, da, da, da, da, da
Nah, da, da, da, da, da, da, da
Lay my bones in neat little rows


************************************

3/4

D (riff 1)

   |                 |                 |                 |                |
   1..&..2..&..3..&..1..&..2..&..3..&..1..&..2..&..3..&..1..&..2..&..3..&..
e|------------------------------------------------------------------------|
B|------------------------------------------------------------------------|
G|------------------------------------------------------------------------|
D|-3--0-----3--0-----3--0-----3--0--0--3--0-----3--0-----3--0-----3--0--0-|
A|-3--0-----3--0-----3--0-----3--0--0--3--0-----3--0-----3--0-----3--0--0-|
D|-3--0-----3--0-----3--0-----3--0--0--3--0-----3--0-----3--0-----3--0--0-|
   My high priestess                   folded neatly, 


   |                 |                 |                 |                |
   1..&..2..&..3..&..1..&..2..&..3..&..1..&..2..&..3..&..1..&..2..&..3..&..
e|------------------------------------------------------------------------|
B|------------------------------------------------------------------------|
G|------------------------------------------------------------------------|
D|-3--0-----3--0-----7--7-----7--0-----3--0-----3--0-----7--7-----7--0----|
A|-3--0-----3--0-----7--7-----7--0-----3--0-----3--0-----7--7-----7--0----|
D|-3--0-----3--0-----7--10----7--0-----3--0-----3--0-----7--10----7--0----|
   back in your box,                      oh lord


variation on last one:

3/4 to 4/4
   |                 |                 |                       |
   1..&..2..&..3..&..1..&..2..&..3..&..1.....2.....3.....4.....1
e|---------------------------------------------------------------|
B|---------------------------------------------------------------|
G|-------------------------------------------------------------7-|
D|-3--0-----3--0-----7--7-----7--0-----5-----5-----5-----5-----7-|
A|-3--0-----3--0-----7--7-----7--0-----5-----5-----5-----5-----5-|
D|-3--0-----3--0-----7--10----7--0-----5-----5-----5-----5-----0-|
   get me to bed,                      oh                      lord

************************************

chords:

     D*    E*    G*    E**   G**   D**
e|---0-----0-----0-----0-----0------2-------|
B|---0-----0-----0-----0-----0------3-------|
G|---7-----9-----12----0-----0------2-------|
D|---7-----9-----12----2-----5------0-------|
A|---5-----7-----10----2-----5------0-------|
D|---0-----0-----0-----2-----5------0-------|


************************************

| /   slide up
| \   slide down
| h   hammer-on
| p   pull-off
| ~   vibrato
| +   harmonic
| x   Mute note
| b   Bend
| pb  Pre-bend
| br  Bend release
| pbr Pre-bend release
| brb Bend release bend

************************************
Добавлено: 19.09.2013
Другие материалы по этой песне:
  • Аккорды и текст

Страница создана 19.09.2013
http://primanota.ru/elbow/neat-little-rows-chords.htm
Привет, Гость.
Предлагаем пройти революционный курс по гитаре.
Подарок от PrimaNota.Ru, забирай!