PrimaNota.ru - самый крупный в мире бесплатный архив песенных текстов, аккордов, табулатур и нот


Elastica - Human - текст песни, таба, видео

Регистрация Запомнить меня
Войти через:  Facebook Google Twitter Vk Yandex Mail.ru

Elastica - Human - текст песни, таба, видео

Печатать
Просмотров: 133
Авторы: Robert Gotobed, Donna Matthews, Colin Newman, Bruce Gilbert, Graham Lewis

Title: Human
Artist: Elastica
Album: The Menace
Tabbed by: Kasey McKee (OfLiliesAndRemains1919@hotmail.com)
Date: March 1, 2003

There are some parts towards the beginning that I didn't tab out, but
this is essentially the whole song.


Intro on keyboard or cello or something:
-F--D--F--D--C-D-

Verse:
E:------10---------------------
B:----6-----------------6-6-6-6
G:-7----------7----------------
D:-----------------------------
A:-----------------------------
E:-----------------------------
(these are played with various pickslides and scratching noises)


After verse:
E:------------------------
B:------------------------
G:------------------------
D:---7-6----------7-6-6/12
A:-5------8-----5---------
E:------------------------

Solo:
E:---------------------------------------------
B:---------------------------------------------
G:---5---5---5-5--7-7----5----5-----5-5-4-3-2--
D:---------------------------------------------
A:-5---5---5-----------5---5-----5-------------
E:---------------------------------------------

The "Lowdown" riff:
E:------------------------
B:10----7-----12--10----7-
G:10----7-----12--10----7-
D:10----7-----12--10----7-
A:8-----5-----10--8-----5-
E:------------------------

During "Lowdown" riff:
E:--------------------------------------
B:--------------------------------------
G:-13-13-13-13-14---13-13-13-13-14-10-7-
D:-13-13-13-13-14---13-13-13-13-14-10-7-
A:-11-11-11-11-12---11-11-11-11-12-8--5-
E:--------------------------------------

Bass solo:
G:---------------------------
D:---------------------------
A:-5--5--5-----5--5--5-----3-
E:---------3-5---------3-5---
(This is also the bassline for the entire song)


Guitar during bass solo:
E:------------------------------------------
B:------------------------------------------
G:-12-12-12-12-10-10-7-7-7-7-7-12-10-10-7-7-
D:-12-12-12-12-10-10-7-7-7-7-7-12-10-10-7-7-
A:-10-10-10-10-8--8--5-5-5-5-5-10-8--8--5-5-
E:------------------------------------------
     
Добавлено: 06.11.2013
Другие материалы по этой песне:
  • Аккорды и текст

Страница создана 03.05.2012
http://primanota.ru/elastica/human-chords.htm
Привет, Гость.
Предлагаем пройти революционный курс по гитаре.
Подарок от PrimaNota.Ru, забирай!