PrimaNota.ru - самый крупный в мире бесплатный архив песенных текстов, аккордов, табулатур и нот


El Ten Eleven - Hot Cakes - таба, бас-таба, видео

Регистрация Запомнить меня
Войти через:  Facebook Google Twitter Vk Yandex Mail.ru

El Ten Eleven - Hot Cakes - таба, бас-таба, видео

Печатать
Просмотров: 154
Band: El Ten Eleven
Album: Every Direction Is North
Song: Hot Cakes
Year: 2007
Tuning: Drop D

Saw a tab that only had the bass parts for this song and I thought I could improve it as 
well as add missing
parts. Listen to the rhythm and I am positive you will have no problem playing this 
amazing song!


Bass or Rhythm Guitar
E|----------------------------------|
B|----------------------------------|
G|----------------------------------|
D|--7--7--7--7--7--7--7--7--7--0--5-|
A|--5--5--5--5--5--5--5--5--5--3--3-|
D|----------------------------------|


Lead Guitar (Pitch Shifter Effect Possibly in Use)
E|--------------|
B|------13--14--|
G|--14----------|
D|--------------|
A|--------------|
D|--------------|


Bass Line
D|--------------------------------|
A|--------------------------------|
D|--8--8--12--12--12--5--5--5--5--|


Rhythm Guitar
E|----------------------------------------|
B|--3--3--3--3--3--3----------------------|
G|--5--5--5--5--5--5----------------------|
D|----------------------------------------|
A|----------------------------------------|
D|----------------------------------------|

Lead Guitar
E|---------------------------------------------------|
B|--12--12--12--9--9--9--10--9--10--9--10--9---------|
G|--10--10--10--7--7--7--8---7-----------------------|
D|---------------------------------------------------|
A|---------------------------------------------------|
D|---------------------------------------------------|
Добавлено: 16.08.2015
Другие материалы по этой песне:
  • Аккорды и текст

Страница создана 09.05.2012
http://primanota.ru/el-ten-eleven/hot-cakes-chords.htm
Привет, Гость.
Предлагаем пройти революционный курс по гитаре.
Подарок от PrimaNota.Ru, забирай!