PrimaNota.ru - самый крупный в мире бесплатный архив песенных текстов, аккордов, табулатур и нот


El Otro Yo - Punk - бас-таба, видео

Регистрация Запомнить меня
Войти через:  Facebook Google Twitter Vk Yandex Mail.ru

El Otro Yo - Punk - бас-таба, видео

Печатать
Просмотров: 107
++++++++++++++++++++
| El Otro Yo- Punk |
++++++++++++++++++++


"Quiero ir a hacer musica Punk con vos..."

Tuning: EADG


Intro
1.
G|----------------------------------------------------|
D|-7-6-4-6-7-7--7-6-4-6-7-7--9-8-6-8-9-9--9-8-6-8-9-9-|
A|----------------------------------------------------|
E|----------------------------------------------------|

2.
G|---------------------------------|
D|-9-8-6-7-9-8-6-7-9-8-6-7-9-7-5---|
A|-------------------------------7-|
E|---------------------------------|

Verse
"Quiero ir a hacer musica Punk..."
3.
G|-----------------------------------------|
D|-----------------------------------------|
A|-5555-1111-5555-1111-5555-1111-5555-1111-|
E|-----------------------------------------|

Pre-Chorus
"El valor de la amistad..."
4.
G|---------------------|
D|---------------------|
A|---------------------|
E|-3333-0000-3333-0000-|

Chorus
"Quiero que seas mi amigo..."
5.
G|-----------------------------------------|
D|-----------------------------------------|
A|-----------------------------------------|
E|-5555/8888-5555/8888-5555/8888-----------|

Verse
"Quiero ir a hacer musica Punk..."
6.
G|-----------------------------------------|
D|-----------------------------------------|
A|-5555-1111-5555-1111-5555-1111-5555-1111-|
E|-----------------------------------------|

Pre-Chorus
"El valor de la amistad..."
7.
G|---------------------|
D|---------------------|
A|---------------------|
E|-3333-0000-3333-0000-|

Chorus
"Kiero ke seas mi amigo..."
8.
G|-----------------------------------------|
D|-----------------------------------------|
A|-----------------------------------------|
E|-5555/8888-5555/8888-5555/8888-----------|

Bridge
9.
G|-----------------------------------------------------|
D|-----------------------------------------------------|
A|-5x-5-111-333-5x-5-111-333-5x-5-111-333-5x-5-111-333-|
E|-----------------------------------------------------|

10.
G|-----------------------------------------------------|
D|-----------------------------------------------------|
A|-7x-7-333-555-7x-7-333-555-7x-7-333-555-7x-7-333-555-|
E|-----------------------------------------------------|

11.
G|-------------------------|
D|-------------------------|
A|-7--6--5--4--3--2--1--0x-|
E|-------------------------|

Verse
"Quiero ir a hacer musica Punk..."
12.
G|-----------------------------------------|
D|-----------------------------------------|
A|-5555-1113-5555-1113-5555-1113-5555-1113-|
E|-----------------------------------------|

Pre-Chorus
"El valor de la amistad..."
13.
G|---------------------|
D|---------------------|
A|---------------------|
E|-3333-0000-3333-0000-|

Chorus
"Kiero ke seas mi amigo..."
14.
G|-------------------------------|
D|-------------------------------|
A|-------------------------------|
E|-5555/8888-5555/8888-5555/8888-|

Pre-Chorus
"El valor de la amistad..."
15.
G|---------------------|
D|---------------------|
A|---------------------|
E|-3333-0000-3333-0000-|

Chorus
"Kiero ke seas mi amigo..."
16.
G|-------------------------------|
D|-------------------------------|
A|-------------------------------|
E|-5555/8888-5555/8888-5555/8888-|

Outro
17.
G|-------------------|
D|-------------------|
A|-------------------|
E|----5x----------5x-|


Lyrics:


Quiero ir a hacer musica Punk con vos

El valor de la amistad es tan grande

Quiero que seas mi amigo,
Sobre todo los Domingos
Que no me gustan...



+++++++++++++++++++++++++++++++++
| RaiLeff                       |
| Underground__Dora@Hotmail.Com |
+++++++++++++++++++++++++++++++++
Добавлено: 21.05.2012
Другие материалы по этой песне:

Страница создана 21.05.2012
http://primanota.ru/el-otro-yo/punk-chords.htm
Привет, Гость.
Предлагаем пройти революционный курс по гитаре.
Подарок от PrimaNota.Ru, забирай!