PrimaNota.ru - самый крупный в мире бесплатный архив песенных текстов, аккордов, табулатур и нот


El Otro Yo - Popurri - бас-таба, видео

Регистрация Запомнить меня
Войти через:  Facebook Google Twitter Vk Yandex Mail.ru

El Otro Yo - Popurri - бас-таба, видео

Печатать
Просмотров: 210
Уроки эстрадного вокала в Санкт-Петербурге
+++++++++++++++++++++++
| El Otro Yo- Popurri |
+++++++++++++++++++++++


"Es el zumbido del silencio lo que está dentro del cuerpo..."

Tuning: EADG


They're actually five songs played
together on a Live Show at Cordoba

Songs:

1. Corta El Pasto
2. Tetona
3. Los Pajaros
4. Sexo En El Elevador
5. Hola Papa
6. El Zumbido



Intro
1.
G|----------|
D|------6-5-|
A|-55-8-----|
E|----------|

2.
G|----------------------------------------|
D|------6-5-------6-5---------------5-3---|
A|-55-8------55-8------55-5-3-5---5-----3-|--x2
E|----------------------------------------|

Verse
"Amame toda la noche..."
3.
G|----------------------------------------|
D|----------------6-5-------6-5-----------|
A|-55-5-3-5--55-5------55-5------55-5-3-5-|--x2
E|----------------------------------------|

4.
G|----------------------------------------|
D|------6-5-------6-5-------6-5-------6-5-|
A|-55-8------55-8------55-8------55-8-----|
E|----------------------------------------|

KChorus
"Mas allá de tu corazón..."
5.
G|---------------------|
D|---------------------|
A|---------------------|--x4
E|-0000-1111-3333-5555-|

6.
G|---------------------| 
D|---------------------|
A|---------------------|--x4 
E|-0-00-1-11-3-33-5-55-|

Outro
"Corta el pasto..."
7.
G|---------|
D|-8-7-5---|
A|-------7-|
E|---------|

Verse
"En una bañera con agua caliente..."
8.
G|------------------------------------------------------|
D|------------------------------------------------------|
A|------------------------------------------------------|
E|-355-35-22x----355-35-22x----355-35-22x----355-35-22x-|

9.
G|-------------------------------------|
D|-------------------------------------|
A|-------------------------------------|
E|-35535222-35535222-35535222-35535222-|

"Trabajo al mediodia con una bovina..."
10.
G|------------------------------------------------------|
D|------------------------------------------------------|
A|------------------------------------------------------|
E|-355-35-22x----355-35-22x----355-35-22x----355-35-22x-|

11.
G|-------------------------------------|
D|-------------------------------------|
A|-------------------------------------|
E|-35535222-35535222-35535222-35535222-|

"Chupa chupa chupa..."
12.
G|-----------------------------------------------------------|
D|-----------------------------------------------------------|
A|-----------------------33------------------------3~--3/15~-|
E|-22-55-44-33--22-55-44-----22-55-44-33--22-55-44-----------|

13.
G|--------------------------------------------------|
D|----33-55-33-----33-----------33-55-33------------|
A|-55-----------55----55-33--55----------5\6666-666-|--x2
E|--------------------------------------------------|

14.
G|--------------------------------------------------|
D|----33-----------33-----------33-----------33-----|
A|-55----55x----55----55x----55----55x----55----55x-|
E|--------------------------------------------------|

15.
G|--------------------------------------------------|
D|----33-55-33-----33-----------33-55-33------------|
A|-55-----------55----55-33--55----------5\6666-666-|--x2
E|--------------------------------------------------|

Verse
"Los pajaros buscan a su madre..."
16.
G|----------------------------------------------------|
D|----------------------------------------------------|
A|-55-33-00-33--55-33-00-33--55-33-00-33--55-33-00-33-|
E|----------------------------------------------------|

17.
G|------------------------|
D|----33-----------33-----|
A|-55----55x----55----55x-|
E|------------------------|

18.
G|--2/7777-7777-7777-8888--7777-7777-5555---55-|
D|----------------------------------------77---|
A|---------------------------------------------|--x2
E|---------------------------------------------|

19.
G|----------------------------------------------------|
D|----------------------------------------------------|
A|-55-55-55-66--55-55-33--3--55-55-55-66--55-55-33--3-|
E|-----------------------5-------------------------5--|

Verse
"No quiero una muñeca inflable..."
20.
G|-------------------------------------------------|
D|-------------------------------------------------|
A|-000-000-000-333-333-333-000-000-000-333-333-333-|
E|-------------------------------------------------|

Chorus
"Conocí a una linda mujer..."
21.
G|-------------------------------------------------|
D|-------------------------------------------------|
A|-000-000-000-333-333-333-000-000-000-333-333-333-|
E|-------------------------------------------------|

"Te conocí en un ascensor..."
22.
G|------------------------------------------------------------------|
D|------------------------------------------------------------------|
A|------------3--3333-55-650--3333-55-650--3333-55-650--3333-55-650-|
E|-55-35--55-5------------------------------------------------------|

23.
G|-------------------------------------------------|
D|-------------------------------------------------|
A|-000-000-000-333-333-333-000-000-000-333-333-333-|
E|-------------------------------------------------|

Verse
"Estoy tan enamorado..."
24.
G|-------------------------------------|
D|-------------------------------------|
A|-00000000-00000000-33333333-33333333-|
E|-------------------------------------|

"Que se la presentaré a mi mama..."
25.
G|-------------------------------------|
D|-------------------------------------|
A|-00000000-00000000-33333333-55555555-|
E|-------------------------------------|

Chorus
"Mama conocí a una linda mujer..."
26.
G|-------------------------------------------------|
D|-------------------------------------------------|
A|-000-000-000-333-333-333-000-000-000-333-333-333-|
E|-------------------------------------------------|

Outro
"Hola papá, feliz cumpleaños..."
27.
G|--------------------------------------------------------|
D|--------------------------------------------------------|
A|------2-0---0-------2-0-3-5-------2-0---0-------2-0-3-5-|
E|-000x-----3----000x----------000x-----3----000x---------|

28.
G|------------------------------------|
D|------------------------------------|
A|------------------------------------|
E|-000-003--000-005--000-003--000-005-|

29.
G|--------------------------------|
D|--------------------------------|
A|---2-0-----2--5----2-0-----2--5-|
E|-00---3--00-00---00---3--00-00--|

Verse
"En este lugar de mierda..."
30.
G|----------------------------------------------------|
D|----------------------------------------------------|
A|----22-00--------22-00--------22-00--------22-00----|--x2
E|-00-------33--00-------33--00-------33--00-------33-|

"Es tan refrescante tu compañía nena..."
31.
G|-------------------------------------|
D|-22222222-22222222-22222222-22222222-|
A|-------------------------------------|--x2
E|-------------------------------------|

Chorus
"Hola papa, estoy en la cárcel..."
32.
G|-----------2222-4444------------2222-4444-|
D|-0000-2222------------0000-2222-----------|
A|------------------------------------------|--x2
E|------------------------------------------|

Outro.
33.
G|------------------------------------------|
D|------------------------------------------|
A|------3333------3333-------3333------3333-|--x2
E|-5555------2222-------5555------2222------|

Verse
"Deja que penetre en tu oído..."
34.
G|----------------------------------|
D|----------------------------------|
A|-----33-3----33-3----33-3----33-3-|--x2
E|-55-5----22-2----55-5----22-2-----|

Chorus
"Es el zumbido del silencio lo que está dentro del cuerpo..."
35.
G|------------------------------------------|
D|------------------------------------------|
A|------3333------3333-------3333------3333-|--x2
E|-5555------2222-------5555------2222------|

Outro
36.
G|------------------------------------------|
D|------------------------------------------|
A|------3333------3333-------3333------3333-|--x2
E|-5555------2222-------5555------2222------|

37.
G|-----------------------------------|
D|-----------------------------------|
A|-00000000-0000000-00000000-0000000-|--x4
E|-----------------------------------|

38.
G|------------------------------------------|
D|------------------------------------------|
A|------3333------3333-------3333------3333-|--x2
E|-5555------2222-------5555------2222------|

Verse
"Entre los dientes tengo un zumbido..."
39.
G|----------------------------------|
D|----------------------------------|
A|-----33-3----33-3----33-3----33-3-|--x2
E|-55-5----22-2----55-5----22-2-----|

Chorus
"Es el zumbido del silencio lo que está dentro del cuerpo..."
40.
G|------------------------------------------|
D|------------------------------------------|
A|------3333------3333-------3333------3333-|--x2
E|-5555------2222-------5555------2222------|

Outro
41.
G|------------------------------------------|
D|------------------------------------------|
A|------3333------3333-------3333------3333-|--x2
E|-5555------2222-------5555------2222------|

Outro
42.
G|-----------------------------------------|
D|-----------------------------------------|
A|-0-00-0-00-0-00-0-00-0-00-0-00-0-00-0-00-|
E|-----------------------------------------|

43.
G|------------------------------------------|
D|------------------------------------5-3---|
A|-0x--0000000x--0000000x--0000000x-5-----3-|--x2
E|------------------------------------------|

44.
G|---------------------------------|
D|---------------------------------|
A|-1~--1-1-1~--1-1-0~--0-0-0~--0-0-| 
E|---------------------------------|   
                                 

Lyrics:


Amame, toda la noche, amame, todo el tiempo
Seremos jirafas antes que sapos
Seremos babosas antes que murciélagos

Más allá de tu corazón
El espíritu reza

Corta el pasto

En una bañera con agua caliente
Tengo la espuma y una tetona

Trabajo al mediodía con una bovina
No quiero más tetonas, quiero culonas

Chupa chupame

Los pájaros buscan a su madre
Los pájaros quieren cacarear

No quiero una muñeca inflable
Quiero una mujer
Estoy buscando un nuevo amor
Conocí a una linda mujer
en un ascensor, en un ascensor
Conocí a una buena mujer
en un ascensor, en un ascensor

Te conocí en un ascensor
Sexo en el elevador

Estoy tan enamorado
Que se la presentaré a mi mamá
Mamá, conocí a una linda mujer
en un ascensor, en un ascensor
Mamá, conocí a una buena mujer
en un ascensor, en un ascensor

En este lugar de mierda
tantas pocas cosas para hacer
yo me quiero divertir y no me dejan
es tan refrescante tu compania nena
En esta celda, en esta celda

Hola papa estoy en la carcel

Deja que penetre en tu oido
que rebote como aromas

Es el zumbido del silencio
lo que está dentro del cuerpo
Es el zumbido del silencio
lo que está por estallar 

Entre los dientes tengo un zumbido
el silencio que mastico

Es el zumbido del silencio quiero romperlo!!



+++++++++++++++++++++++++++++++++
| RaiLeff                       |
| Underground__Dora@Hotmail.Com |
+++++++++++++++++++++++++++++++++
Добавлено: 26.04.2012
Другие материалы по этой песне:
  • Аккорды и текст

Страница создана 26.04.2012
http://primanota.ru/el-otro-yo/popurri-chords.htm
Привет, Гость.
Предлагаем пройти революционный курс по гитаре.
Подарок от PrimaNota.Ru, забирай!