PrimaNota.ru - самый крупный в мире бесплатный архив песенных текстов, аккордов, табулатур и нот


El Otro Yo - Pecadores - бас-таба, видео

Регистрация Запомнить меня
Войти через:  Facebook Google Twitter Vk Yandex Mail.ru

El Otro Yo - Pecadores - бас-таба, видео

Печатать
Просмотров: 129
+++++++++++++++++++++++++
| El Otro Yo- Pecadores |
+++++++++++++++++++++++++


"Nunca, nunca serán perdonados..."

Tuning: EADG


Verse
"Por las noches ruegan al cielo..."
1.
G|---------------------------------|
D|---------------------------------|
A|---------------------------------|--x3
E|-0~----0-4~----4-5~----5-4~----2-|

"Infinitos pecados..."
2.
G|-----------------------------------|
D|-----------------------------------|
A|-----------------------------------|
E|-0~----0-4~----4-5~----5-4~--------|

Chorus
"Nunca, nunca serán perdonados..."
3.
G|-----------------------------------------|
D|-----------------------------------------|
A|----------------3333----------------3333-|--x2
E|-0000-4444-5555------0000-4444-5555------|

Verse
"Por las noches ruegan al cielo..."
4.
G|-------------------------|
D|-------------------------|
A|-------------------------|
E|-0~----4~----5~----4~----|

5.
G|---------------------------------|
D|---------------------------------|
A|---------------------------------|--x2
E|-0~----0-4-4-4-4-5-5-5-5-4-4-4-2-|

"Infinitos pecados..."
6.
G|-----------------------------------|
D|-----------------------------------|
A|-----------------------------------|
E|-0~----0-4-4-4-4-5-5-5-5-4~--------|

Chorus
"Nunca, nunca serán perdonados..."
7.
G|-----------------------------------------|
D|-----------------------------------------|
A|----------------3333----------------3333-|--x2
E|-0000-4444-5555------0000-4444-5555------|

"Nunca, nunca, nunca...."
8.
G|-----------------------------------------|
D|-----------------------------------------|
A|----------------3333----------------3333-|--x2
E|-0000-4444-5555------0000-4444-5555------|

"Nuncaaaa..."
9.
G|-----------------------------------------|
D|-----------------5-------------------5---|
A|----------------3-33----------------3-33-|
E|-0000-4444-5555------0000-4444-5555------|

10.
G|------------------------------------------------|
D|-----------------5-------------------5----------|
A|----------------3-33----------------3-33--------|
E|-0000-4444-5555------0000-4444-5555------0~/12~-|

Verse
"Por las noches ruegan al cielo..."
11.
G|-------------------------|
D|-------------------------|
A|-------------------------|--x2
E|-0~----4~----5~----4~----|

"Infinitos pecados..."
12.
G|-----------------------------------|
D|-------------------------2~--------|
A|-----------------------------------|
E|-0~----4~----5~----4~--------------|


Lyrics:


Por las noches ruegan al cielo
Infinitos pecados
Nunca, nunca serán perdonados



+++++++++++++++++++++++++++++++++
| RaiLeff                       |
| Underground__Dora@hotmail.com |
+++++++++++++++++++++++++++++++++
Добавлено: 11.03.2012
Другие материалы по этой песне:

Страница создана 11.03.2012
http://primanota.ru/el-otro-yo/pecadores-chords.htm
Привет, Гость.
Предлагаем пройти революционный курс по гитаре.
Подарок от PrimaNota.Ru, забирай!