PrimaNota.ru - самый крупный в мире бесплатный архив песенных текстов, аккордов, табулатур и нот


El Otro Yo - Ola Salvaje - бас-таба, видео

Регистрация Запомнить меня
Войти через:  Facebook Google Twitter Vk Yandex Mail.ru

El Otro Yo - Ola Salvaje - бас-таба, видео

Печатать
Просмотров: 148
+++++++++++++++++++++++++++
| El Otro Yo- Ola Salvaje |
+++++++++++++++++++++++++++


"Agarrate bien fuerte de mi que vamos a salir volando..."

Tuning: EADG

Intro.
1.
G|---------------------------------|
D|-33-22-33-22-32------------------|
A|----------------1h3333-1h3333333-|
E|---------------------------------|

2.
G|---------------------------------|
D|-33-22-33-22-32-3/555555555555---|
A|---------------------------------|
E|---------------------------------|

3.
G|---------------------------------|
D|-33-22-33-22-32------------------|
A|----------------1h3333-1h3333333-|
E|---------------------------------|

4.
G|---------------------------------|
D|-33-22-33-22-32-3/555555555555---|
A|---------------------------------|
E|---------------------------------|

Verse
"Yo seré lo que quiera ser..."
5.
G|---------------------------------|
D|---------------------------------|
A|-555-333--------555-333----------|
E|--------333333---------333333-111|

Chorus
"Agarráte bien fuerte de mi..." 
6.
G|----------------------------------|
D|---22-3/5----11-3---22-3/5----11-3|
A|-33--------11-----33--------11----|
E|----------------------------------|

"Que vamos a salir volando..."
7.
G|---------------------------------|
D|---22-3/5----11-3----------------|
A|-33--------11-----333333---------|
E|---------------------------------|

"Hacia otro lugar mas lejos..."
8.
G|---------------------------------|
D|-3333333333-55555555555----------|
A|---------------------------------|--x4
E|---------------------------------|

Verse
"Vos serás lo que quieras ser..."
9.
G|---------------------------------|
D|---------------------------------|
A|-555-333-------555-333-----------|
E|--------333333--------333333-111-|

Bridge
10.
G|---------------------------------|
D|-33-22-33-22-32------------------|
A|----------------1h3333-1h3333333-|
E|---------------------------------|

11.
G|---------------------------------|
D|-33-22-33-22-32-3/555555555555---|
A|---------------------------------|
E|---------------------------------|

12.
G|---------------------------------|
D|-33-22-33-22-32------------------|
A|----------------1h3333-1h3333333-|
E|---------------------------------|

13.
G|----------------|
D|-33-22-33-22-32-|
A|----------------|
E|----------------|

Chorus
"Yo me agarro bien fuerte de vos..."
14.
G|----------------------------------|
D|---22-3/5----11-3---22-3/5----11-3|
A|-33--------11-----33--------11----|
E|----------------------------------|

"Y me dejo llevar..."
15.
G|---------------------------------|
D|---22-3/5----11-3----------------|
A|-33--------11-----333333---------|
E|---------------------------------|

"Hacia otro lugar mas lejos..."
16.
G|---------------------------------|
D|-3333333333-55555555555----------|
A|---------------------------------|--x4
E|---------------------------------|

Outro
17.
G|---------------------------------|
D|-33-22-33-22-32------------------|
A|----------------1h3333-1h3333333-|
E|---------------------------------|

18.
G|---------------------------------|
D|-33-22-33-22-32-3/555555555555---|
A|---------------------------------|
E|---------------------------------|

19.
G|---------------------------------|
D|-33-22-33-22-32------------------|
A|----------------1h3333-1h3333333-|
E|---------------------------------|

20.
G|----------------|
D|-33-22-33-22-32-|
A|----------------|
E|----------------|


Lyrics:


Yo seré lo que quiera ser
Una estrella fugaz cualquiera, viajera

Agarráte bien fuerte de mi
Que vamos a salir volando
Hacia otro lugar mas lejos, lejos de acá

Vos serás lo que quieras ser
Una ola de mar salvaje con su tempestad...

Yo me agarro bien fuerte de vos
Y me dejo llevar
Hacia otro lugar mas lejos, lejos de acá



+++++++++++++++++++++++++++++++++
| RaiLeff                       |
| Underground__Dora@hotmail.com |
+++++++++++++++++++++++++++++++++
Добавлено: 17.06.2012
Другие материалы по этой песне:

Страница создана 17.06.2012
http://primanota.ru/el-otro-yo/ola-salvaje-chords.htm
Привет, Гость.
Предлагаем пройти революционный курс по гитаре.
Подарок от PrimaNota.Ru, забирай!