PrimaNota.ru - самый крупный в мире бесплатный архив песенных текстов, аккордов, табулатур и нот


El Otro Yo - Mascota Del Sistema - бас-таба, видео

Регистрация Запомнить меня
Войти через:  Facebook Google Twitter Vk Yandex Mail.ru

El Otro Yo - Mascota Del Sistema - бас-таба, видео

Печатать
Просмотров: 108
+++++++++++++++++++++++++++++++++++
| El Otro Yo- Mascota Del Sistema |
+++++++++++++++++++++++++++++++++++


"Rompiendo las reglas del juego, estallando tu lado salvaje..."

Tuning: EADG


Intro
1.
G|-------------------------------|
D|-------------------------------|
A|-----------7-6~----------------|--x2
E|-555555555------555555555-5/7~-|

Verse
"Eres una dulce mascota..."
2.
G|----------------------------------|
D|----------------------------------|
A|----------------------------------|--x2
E|-55-555-555-555-555-555-555-555-5-|

Pre-Chorus
"Rompiendo las reglas del juego..."
3.
G|-------------------------------|
D|-------------------------------|
A|-----------7-6~----------------|--x2
E|-555555555------555555555-5/7~-|

Verse
"Eres una dulce mascota..."
4.
G|----------------------------------|
D|----------------------------------|
A|----------------------------------|--x2
E|-55-555-555-555-555-555-555-555-5-|

Bridge
"Wuaa!!"
5.
G|-------------------------------------------|
D|-------------------------------------------|
A|-------------------------------------------|--x2
E|-0-0-0-6-5-0-0-0-6-5-0-0-0-6-5-3-3-3-2-2-2-|

Chorus
"Somos la generación desgenerada..."
6.
G|---------------------------------------------|
D|-------------3---3-5-6-5-3-------------------|
A|-5-5-3-5-3-5---5------------5-5-3-5-3-5-5----|--x4
E|------------------------------------------3~-|

Intro
7.
G|-------------------------------|
D|-------------------------------|
A|-----------7-6~----------------|--x2
E|-555555555------555555555-5/7~-|

Verse
"Eres una dulse maskota..."
8.
G|----------------------------------|
D|----------------------------------|
A|----------------------------------|--x2
E|-55-555-555-555-555-555-555-555-5-|

Pre-Chorus
"Rompiendo las reglas del juego..."
9.
G|-------------------------------|
D|-------------------------------|
A|-----------7-6~----------------|--x2
E|-555555555------555555555-5/7~-|

Bridge
"Ahh!!!"
10.
G|-------------------------------------------|
D|-------------------------------------------|
A|-------------------------------------------|--x2
E|-0-0-0-6-5-0-0-0-6-5-0-0-0-6-5-3-3-3-2-2-2-|

Chorus
"Somos la generación desgenerada..."
11.
G|---------------------------------------------|
D|-------------3---3-5-6-5-3-------------------|
A|-5-5-3-5-3-5---5------------5-5-3-5-3-5-5----|--x4
E|------------------------------------------3~-|

Outro
12.
G|-----------------------------------------|
D|-----------------------------------------|
A|--------7~--------7~--------7~-----------|
E|--0~-6~-----0~-6~-----0~-6~----0000-0000-|

13.
G|------------------------------------------------|
D|------------------------------------------------|
A|--------7\1~--------7\1~--------7\1~------------|
E|--0~-6~-------0~-6~-------0~-6~-------0000-0000-|

14.
G|------------------------------------------------------------|
D|------------------------------------------------------------|
A|--------7/13~--------7/13~--------7/13~---------------------|
E|--0~-6~--------0~-6~--------0~-6~--------0-0-0-0-000-000-0~-|


Lyrics:


Eres una dulce mascota de un sistema corrompido
y serás destruido, destruido así!
Eres una voz silenciada, enmudecida, censurada
y serás destruida, destruida así!

Rompiendo las reglas del juego
estallando tu lado salvaje!

Eres una dulce mascota, una marioneta rota
y serás destruida, destruida así!
Eres una mente sitiada, perseguida, censurada
y serás destruida, destruida así!

Somos la generación degenerada
y te vamos a quemar la cabeza.
Esto no es una fiesta, es un quilombo
todo esto es una mierda!



+++++++++++++++++++++++++++++++++
| RaiLeff                       |
| Underground__Dora@Hotmail.Com |
+++++++++++++++++++++++++++++++++
Добавлено: 11.03.2012
Другие материалы по этой песне:

Страница создана 11.03.2012
http://primanota.ru/el-otro-yo/mascota-del-sistema-chords.htm
Привет, Гость.
Предлагаем пройти революционный курс по гитаре.
Подарок от PrimaNota.Ru, забирай!