PrimaNota.ru - самый крупный в мире бесплатный архив песенных текстов, аккордов, табулатур и нот


El Otro Yo - Amor Fuego - аккорды и текст, бас-таба, видео

Регистрация Запомнить меня
Войти через:  Facebook Google Twitter Vk Yandex Mail.ru

El Otro Yo - Amor Fuego - аккорды и текст, бас-таба, видео

Печатать
Просмотров: 158
Amor Fuego
El Otro Yo
++++++++++++++++++++++++++
| El Otro Yo- Amor Fuego |
++++++++++++++++++++++++++


"Soy el hombre que espera con flores..."

Tuning: EADGBe


Chords used in this song:


E:   022100
F#m: 244222
G:   320003
A:   x02220
Am:  x02210
B:   x24442
C:   x32010
D:   xx0232


Intro


 E - F#m - A - B


1.
e|------------------------------------------------|
B|------------------------------2~----------------|
G|---------------------------2~-------------2~----|
D|-------2~---------2~----2~----------------------|
A|----2~---------2~----2~----------2~----0~----0~-|
E|-0~-------0-2~----------------------------------|

2.
e|---------------------------------------------------|
B|---------------------------------------------------|
G|---------------------------------------------------|
D|-7/9~--7~--6~--7-6~--2/4~----2~-4~-2~-4~-6~--------|
A|---------------------------------------------------|
E|---------------------------------------------------|


Verse


E          F#m  A         B
  Soy la mujer  con la mirada gillette
E          F#m  A              B
  Y vos queres  que te abra el alma en dos
E        F#m   A        B
  Soy un asno pero de gran corazón
E         F#m   A   B
  Desenfrenado


Pre-Chorus


C                           Am
  No me importa que ames a todos
C                                  Am
  Tampoco importa lo que digan de mi
C                          Am
  Lo importante arriba de todo
C                       Am
  Solo que me elijas a mi


Verse

 E - F#m - A - B
 

Soy el hombre que espera con flores
Sin verguenza de que se rían de mi
Espiritu de luchador, un utopista, alguien que cree que todo se puede
Y aunque parece que en esta vida los malditos ganan eso está por verse


Pre-Chorus


 C - Am


Un amor que destruya el machismo
Un amor que te deje surgir
La esperanza arriba de todo
Solo que me elijas a mi


Chorus


G                     C
  Te amo en el fuego,   dulzura de fuego
G                    C
  Mis besos de fuego   del infierno de mi alma
G                     C
  Te amo en el fuego,   locura de fuego
G                  C
  Abrazos de fuego   y se encienden nuestras almas


Outro


D                   C
  Hoy me elegiste a mi y yo te elijo a vos
D                   C                C
  Nuestro color de amor es transparente y es para siempre
Am                  C                    Am
  Y es transparente   y es para siempre


Bridge


 E - F#m - A - B


3.
e|------------------------------------------------|
B|------------------------------2~----------------|
G|---------------------------2~-------------------|
D|-------2~---------2~----2~----------------------|
A|----2~---------2~----2~----------2~-------------|
E|-0~-------0-2~----------------------------------|

4.
e|---------------------------------------------------|
B|---------------------------------------------------|
G|---------------------------------------------------|
D|-7/9~--7~--6~--7-6~--2/4~--------------------------|
A|---------------------------------------------------|
E|---------------------------------------------------|


Chorus


 G - C


Te amo en el fuego, dulzura de fuego
Mis besos de fuego, del infierno de mi alma
Te amo en el fuego, locura de fuego
Abrazos de fuego y se encienden nuestras almas


Outro

 
 D - C - D - C - C
 C - Am - C - Am 


Hoy me elegiste a mi y yo te elijo a vos
El verdadero amor es el eterno y es para siempre
Es transparente, es para siempre


  G


Lyrics:


Soy la mujer con la mirada gillette
Y vos queres que te abra el alma en dos
Soy un asno pero de gran corazón
Desenfrenado

No me importa que ames a todos
Tampoco importa lo que digan de mi
Lo importante arriba de todo
Solo que me elijas a mi

Soy el hombre que espera con flores
Sin verguenza de que se rían de mi
Espiritu de luchador, un utopista, alguien que cree que todo se puede
Y aunque parece que en esta vida los malditos ganan eso está por verse

Un amor que destruya el machismo
Un amor que te deje surgir
La esperanza arriba de todo
Solo que me elijas a mi

Te amo en el fuego, dulzura de fuego
Mis besos de fuego del infierno de mi alma
Te amo en el fuego, locura de fuego
Abrazos de fuego y se encienden nuestras almas

Hoy me elegiste a mi y yo te elijo a vos
Nuestro color de amor es transparente y es para siempre
Hoy me elegiste a mi y yo te elijo a vos
El verdadero amor es el eterno y es para siempre
Es transparente, es para siempre



+++++++++++++++++++++++++++++++++
| RaiLeff                       |
| Underground__Dora@Hotmail.Com |
+++++++++++++++++++++++++++++++++
Добавлено: 14.04.2012
Другие материалы по этой песне:
  • Аккорды и текст

Страница создана 14.04.2012
http://primanota.ru/el-otro-yo/amor-fuego-chords.htm
Привет, Гость.
Предлагаем пройти революционный курс по гитаре.
Подарок от PrimaNota.Ru, забирай!