PrimaNota.ru - самый крупный в мире бесплатный архив песенных текстов, аккордов, табулатур и нот


El Flaco - Cantata de puentes amarillos - аккорды и текст, видео

Регистрация Запомнить меня
Войти через:  Facebook Google Twitter Vk Yandex Mail.ru

El Flaco - Cantata de puentes amarillos - аккорды и текст, видео

Печатать
Просмотров: 51
Cantata de puentes amarillos
El Flaco
          A               D 
ah, ah ah ah... ahahah ah ahah 
       E5     D5   C5 
Todo camino puede andar 
C5   B5/F#  Bbsus2/F 
Todo puede andar... 
 
Riff 1 
Con esta sangre alrededor 
no sé que puedo yo mirar 
D7 - D7 / Csus4 - D7 - D7 / Csus4 
 la sangre ríe idiota 
           G - G6/9 - G 
como esta canción 
         Bb11 
¿y ante quien? 
 
D                        Bb(VI)  A * 
Ensucien sus manos como siem-----pre 
Relojes se pudren en sus mentes 
 
D/F# 
Ya! 
Cdim  Bdim  G (Riff 2) 
y en  el    mar 
Cdim  Bdim  G (Riff 2) 
nau---fra---gó 
Cdim  Bdim  G               C 
u-----na   balsa que nunca zarpó 
C   C/B Am  (Am - Am7/G) 
mar a---quí, 
Am  Am7/G  D/F# 
mar a------llá 
 
En un momento vas a ver 
que ya es la hora de volver 
pero trayendo a casa todo aquél fulgor 
¿y para quién? 
 
Las almas repudian todo encierro 
                        Gm/Bb 
las cruces dejaron de llover 
 
F#m 
     sube al taxi, nena 
 
G#dim    F#m    C#7+9 
los  hombres te miran 
             D+7/F# 
te quieren tomar 
 
ojo el ramo, nena 
las flores se caen, tenes que parar 
 
B7/9                    E              D+7/F# 
  Ví las sonrisas muriendo en el carrousell 
  Vi tantos monos, nidos, platos de café 
  E           D+7/F#   C#7+9 
  platos de café, ah 
 
Riff 3 
 
Guarda el hilo, nena 
guarden bien tus manos 
esta libertad 
ya no poses, nena 
todo eso es en vano 
como no dormir 
 
Aunque me fuercen yo nunca voy a decir 
que todo tiempo por pasado fue mejor 
mañana es mejor 
 
Riff 4 
 
Bm                         Gdim/Bb  A           Bb        Bm 
Ah... ah ah ah ah ah ah ah ah...  ah ah ah ah, ah ah ah ah  (X2) 
Bm                         E      F            F# 
Ah... ah ah ah ah ah ah ah ah...  ah ah ah ah, ah ah ah ah  (X2) 
 
Bm     Bm  A   F+7/A 
Aaaaah bam bam bam 
 
Bm(VII) - G(III) - F+7 - G(III) (X2) 
 
Aquellas sombras del camino azul 
¿dónde están? Bm(VII) - A(V) (X2) 
 
yo las comparo con cipreses que ví 
sólo en sueños 
 
y las muñecas tan sangrantes 
están de llorar Bm(VII) - G(III) - F+7 - G(III) 
 
A               C 
yo te amo tanto que 
    C#m             C 
no puedo despertarme sin amar 
y te amo tanto que no puedo 
despertarme sin amar 
 
A               C 
y te amo tanto que 
    C#m             C         C#m - C (X2) 
no puedo despertarme sin amar 
 
Bm                         Gdim/Bb  A           Bb        Bm 
Ah... ah ah ah ah ah ah ah ah...  ah ah ah ah, ah ah ah ah  (X2) 
Bm                         E      F            F# 
Ah... ah ah ah ah ah ah ah ah...  ah ah ah ah, ah ah ah ah  (X2) 
 
Bm     Bm  A   F+7/A  Bb(VI) 
Aaaaah bam bam bam      bam 
 
Riff 5 
 
Bsus4    C+11 
  ¡No! nunca la abandones ¡no! 
  Puentes amarillos, 
  Mira el pájaro, 
  se muere en su jaula 
 
Riff 5 
 
Bsus4    C+11 
  ¡No! nunca la abandones 
  Puentes amarillos 
  se muere en su jaula 
  Mira el pájaro 
  Puentes amarillos, 
 
Dsus2/Bb 
Hoy 
Gm7    Bb(VI) 
te amo ya 
  Am7      F#  Bb(VI) 
y ya es mañanaaaa 
 
Riff 5 
 
Mañana 
Mañana 
Mañana 
Intro 
 
e-------------------     ------------------/ 
b-------------------     ------------------/ 
g-------------------  X3 ------------------/ 
d-------------------     ------------------/ 
a------------9-11-9-     ---12-11-9--12-11-/ 
E----9-10-12--------     ------------------/ 
 
-------------------/      ------------------/ 
-------------------/      ------------------/ 
-------------------/   X3 ------------------/ 
-----------9-11-9v-/      ---12-11-9--12-11v/ 
---9-11-12---------/      ------------------/ 
-------------------/      ------------------/ 
 
--------------------9---/      ------------------9---- 
--------------10h9v-(9)-/      ---10h9-----------10--- 
---------9-11-----------/   X3 --------11h9------11--- 
---11-12----------------/      -------------12v--12--- 
------------------------/      ----------------------- 
------------------------/      ----------------------- 
 
---0--9---9---/ 
---5--10--9---/ 
---6--11--10--/ 
---7--12--11--/ 
---0------11--/ 
----------9---/ 

Riff's:  
Riff 1 
1------------- 
2--5--5-----5- 
3--6--7-----6- 
4--4--4-----4- 
5--0--0--7--0- 
6------------- 
 
Riff 2 
1--3-----------------3-- 
2--0--0h1------------0-- 
3--0--0----0h2p0-----0-- 
4--0--0-----------2--0-- 
5--2--2----------------- 
6--3--3----------------- 
 
Riff 3 
1-----------------------9--7----------------------------- 
2-----------------6--7--9--7--------------------------5-- 
3--6--7--6--6-----4--4--7--6--6--7--6--6--4-----------4-- 
4--4--4--4-----7--0--0--------4--4--4--0-----7--4-----3--    X2 
5--0--0--0--------------------0--0--0--------------4-(4)- 
6-------------------------------------------------------- 
 
1------------------- 
2-------0----------- 
3-------2----------- 
4-------1---2--2/4--  A - A7M   - Bm7 - C#7+9
5--1/2-(2)---------- 
6--1/2-(2)---------- 
 
Riff 4 
e|---2----4-----5-5-| 
B|-5-2--6-4--8--5-5-| 
G|-4-2--5-4--7--5-3-| 
D|-3-4--4-6--6--4---|  (Cortesia de Juan) 
A|-4-4--5-6--7----4-| 
E|---2----4---------| 
 
Riff 5 
1---------------------------10--9 /7-----12-- 
2--6------------6h8p6/5--6--11--10/8-----12-- 
3--5------5--7--------------10--9 /7-----12-- 
4--7--7-------------------------------0-(0)--  X 4 
5--0-(0)-(0)--------------------------------- 
6--------------------------------------------
Добавлено: 14.04.2016
Другие материалы по этой песне:
  • Аккорды и текст

Страница создана 14.04.2016
http://primanota.ru/el-flaco/cantata-de-puentes-amarillos-chords.htm
Привет, Гость.
Предлагаем пройти революционный курс по гитаре.
Подарок от PrimaNota.Ru, забирай!