PrimaNota.ru - самый крупный в мире бесплатный архив песенных текстов, аккордов, табулатур и нот


El Chicano - Gringo En Mexico - бас-таба, видео

Регистрация Запомнить меня
Войти через:  Facebook Google Twitter Vk Yandex Mail.ru

El Chicano - Gringo En Mexico - бас-таба, видео

Печатать
Просмотров: 51
Tabbed by: 6METAL6BASSIST6
E-mail: petergriffinav@gmail.com

Tuning: EADG

0:14

G|------------------------------------------------------------------------------------------------|
D|------5-7---------5-7---------5-7---------5-7---------5-7---------5-7---------5-7---------5-7---| x3
A|5-----------5-----------5-----------5-----------5-----------5-----------5-----------5-----------|
E|------------------------------------------------------------------------------------------------|

G|------------------------------------------------------------------------------------------------|
D|------5-7---------5-7---------5-7---------5-7---------5-7---------5-7---------5-7-----------4---|
A|5-----------5-----------5-----------5-----------5-----------5-----------5-----------5---7-------|
E|------------------------------------------------------------------------------------------------|

G|------------------------------------------------------------------------------------------------|
D|--------------------------------------------4-----------------------------------------------4---|
A|------------------------------------5---7-------------------------------------------3---5-------|
E|3-----------3-----------5-----------------------3-----------3-----------5-----------------------|

G|------------------------------------------------------------------------------------------------|
D|--------------------------------------------4---------------------------------------------------|
A|------------------------------------5---7-------------------------------------------5-----------|
E|3-----------3-----------5-----------------------3-----------3-----------5-----------------------|

G|------------------------------------------------------------------------------------|
D|------------------------------------------------------------------------------------|
A|5-----------5-----------5-----------5-----------5-----------5-----------5-----------|
E|------------------------------------------------------------------------------------|

1:02

G|------------------------------------------------------------------------------------------------|
D|------5-7---------5-7---------5-7---------5-7---------5-7---------5-7---------5-7---------5-7---|
A|5-----------5-----------5-----------5-----------5-----------5-----------5-----------5-----------|
E|------------------------------------------------------------------------------------------------|

G|------------------------------------------------------------------------------------------------|
D|------5-7---------5-7---------5-7---------5-7---------5-7---------5-7---------5-7-----------4---|
A|5-----------5-----------5-----------5-----------5-----------5-----------5-----------5---7-------|
E|------------------------------------------------------------------------------------------------|

G|------------------------------------------------------------------------------------------------|
D|--------------------------------------------4-----------------------------------------------4---|
A|------------------------------------5---7-------------------------------------------5---7-------|
E|3-----------3-----------5-----------------------3-----------3-----------5-----------------------|

G|------------------------------------------------------------------------------------------------|
D|--------------------------------------------4---------------------------------------------------|
A|------------------------------------5---7-------------------------------------------5-----------|
E|3-----------3-----------5-----------------------3-----------3-----------5-----------------------|

G|------------------------------------------------------------------------------------------------|
D|------------------------------------------------------------------------------------------------|
A|5-----------5-----------5-----------5-----------5-----------5-----------5-----------5-----------|
E|------------------------------------------------------------------------------------------------|

G|------------------------------------|
D|------------------------------------|
A|5-----------5-----------5-----------|
E|------------------------------------|

1:40

G|------------------------------------------------------------------------------------------------|
D|------5-7---------5-7---------5-7---------5-7---------5-7---------5-7---------5-7---------5-7---|
A|5-----------5-----------5-----------5-----------5-----------5-----------5-----------5-----------|
E|------------------------------------------------------------------------------------------------|

G|------------------------------------------------------------------------------------------------|
D|------5-7---------5-7---------5-7---------5-7---------5-7---------5-7---------5-7-----------4---|
A|5-----------5-----------5-----------5-----------5-----------5-----------5-----------5---7-------|
E|------------------------------------------------------------------------------------------------|

G|------------------------------------------------------------------------------------------------|
D|--------------------------------------------4-----------------------------------------------4---|
A|------------------------------------5---7-------------------------------------------5---7-------|
E|3-----------3-----------5-----------------------3-----------3-----------5-----------------------|

G|------------------------------------------------------------------------------------------------|
D|--------------------------------------------4---------------------------------------------------|
A|------------------------------------5---7-------------------------------------------5-----------|
E|3-----------3-----------5-----------------------3-----------3-----------5-----------------------|

G|------------------------------------------------------------------------------------------------|
D|------------------------------------------------------------------------------------------------| x2
A|5-----------5-----------5-----------5-----------5-----------5-----------5-----------5-----------|
E|------------------------------------------------------------------------------------------------|

G|------------------------------------|
D|------------------------------------|
A|5-----------5-----------5-----------|
E|------------------------------------|

2:26

G|------------------------------------------------------------------------------------------------|
D|------5-7---------5-7---------5-7---------5-7---------5-7---------5-7---------5-7---------5-7---| x4
A|5-----------5-----------5-----------5-----------5-----------5-----------5-----------5-----------|
E|------------------------------------------------------------------------------------------------|

G|----------------------------------------------------------------|
D|------5-7---------5-7---------5-7---------5-7-------------------|
A|5-----------5-----------5-----------5-----------5-----------5---|
E|--------------------------------------------------------5-------|
Добавлено: 11.08.2015
Вам также может быть интересно:
Другие материалы по этой песне:
  • Аккорды и текст

Страница создана 11.08.2015
http://primanota.ru/el-chicano/gringo-en-mexico-chords.htm
Привет, Гость.
Предлагаем пройти революционный курс по гитаре.
Подарок от PrimaNota.Ru, забирай!