PrimaNota.ru - самый крупный в мире бесплатный архив песенных текстов, аккордов, табулатур и нот


El Canto Del Loco - Un Millon De Cicatricez - бас-таба, видео

Регистрация Запомнить меня
Войти через:  Facebook Google Twitter Vk Yandex Mail.ru

El Canto Del Loco - Un Millon De Cicatricez - бас-таба, видео

Печатать
Просмотров: 102
El canto del loco – un millon de cicatricez
Este es mi primer tab que subo y pues lo saque a puro oido =)
espero que les sirva y si pueden mejorarlo adelante  saludos a la banda luziana 
de Cd juarez y el paso tx. 


Intro:
1|----------------------------------------------|
2|----------44444444------------6666666---------|
3|---444444-----------44444444------------------|
4|----------------------------------------------|

 Hoy vuelvo a encontrar mi corazón…
1|----------------------------------------------|
2|----------44444444------------6666666---------| X2
3|---444444-----------44444444------------------|
4|----------------------------------------------|

 Y hoy me pregunto  por qué..
1|----------------------------------------------|
2|----------44-----11111111111/66666666666------|
3|-------------44-------------------------------|
4|--66--44--------------------------------------|

 y por pensar tengo un millón de cicatrices..
1|----------------------------------------------|
2|-------6666--------------4444-------66666-----|
3|--4444-----------------------44444------------| X2
4|-------------6666-44444-----------------------|

 Qué gran liberación que siento hoy..
1|----------------------------------------------|
2|----------44444444------------6666666---------| X2
3|---444444-----------44444444------------------|
4|----------------------------------------------|

Y hoy me pregunto  por qué..
1|----------------------------------------------|
2|----------44-----11111111111/66666666666------|
3|-------------44-------------------------------|
4|--66--44--------------------------------------|
(otraves la parte “y por pensar tengo un  millon de cicatrices)

 Solo:
1|----------------------------------------------|
2|-------------------444444--66666666-----------|
3|--6666666--222222-----------------------------|
4|----------------------------------------------|

1|----------------------------------------------|
2|-------------------444444--66666666-----------|
3|-----------222222-----------------------------|
4|--6666666-------------------------------------|

Final:
y por pensar tengo un millón de cicatrices..
1|----------------------------------------------|
2|-------6666--------------4444-------66666-----|
3|--4444-----------------------44444------------| X2
4|-------------6666-44444-----------------------|

 Qué gran liberación que siento hoy..
1|----------------------------------------------|
2|----------44444444------------6666666---------| X2
3|---444444-----------44444444------------------|
4|----------------------------------------------|
Добавлено: 22.07.2012
Другие материалы по этой песне:
  • Аккорды и текст

Страница создана 22.07.2012
http://primanota.ru/el-canto-del-loco/un-millon-de-cicatricez-chords.htm
Привет, Гость.
Предлагаем пройти революционный курс по гитаре.
Подарок от PrimaNota.Ru, забирай!