PrimaNota.ru - самый крупный в мире бесплатный архив песенных текстов, аккордов, табулатур и нот


Ekv - Srce - таба, видео

Регистрация Запомнить меня
Войти через:  Facebook Google Twitter Vk Yandex Mail.ru

Ekv - Srce - таба, видео

Печатать
Просмотров: 159
---------------------------------------------------|
H-0-0--0--0--2-2--2-2-2-2--3-3--3-3--5-5--5-5-5-5--|
G-2-2--2--2--2-2--2-2-2-2--2-2--2-2--2-2--2-2-2-2--|
D--------------------------------------------------|
A--------------------------------------------------|
E--------------------------------------------------|

e-------------------------------------------------|
H----------3--------------------------------------|
G-4--0-2-4---4-2----------------------------------|
D----------------4-2-------2----------------------|
A--------------------5-4-5---5-4-2-0--------------|
E-------------------------------------------------|

A                         Asus4
Nije dotakla nista sto bi moglo da boli
       A               Asus4
Njene ruke su bele kao led
      A                  Asus4
Njene misli su ciste ona misli da voli
    A
Ona veruje,veruje

     D                  Dsus4
Nece doci na jesen kada opada lisce
      D                 Dsus4
nece doci u zimu kad je sneg
      D                 Dsus4
nije imala razlog nije imala kada
   D                C    G
Da ostane da ostane kraj mene
C    G
kraj mene
         C         G
da li da verujem u to?


Asus4: x02230
Dsus4: xx0233
Добавлено: 18.05.2012
Вам также может быть интересно:
Другие материалы по этой песне:
  • Аккорды и текст

Страница создана 18.05.2012
http://primanota.ru/ekv/srce-chords.htm
Привет, Гость.
Предлагаем пройти революционный курс по гитаре.
Подарок от PrimaNota.Ru, забирай!