PrimaNota.ru - самый крупный в мире бесплатный архив песенных текстов, аккордов, табулатур и нот


Ekv - Kao Da Je Bilo Nekad - аккорды и текст, видео

Регистрация Запомнить меня
Войти через:  Facebook Google Twitter Vk Yandex Mail.ru

Ekv - Kao Da Je Bilo Nekad - аккорды и текст, видео

Печатать
Просмотров: 126
Kao Da Je Bilo Nekad
Ekv
EKV - KAO DA JE BILO NEKAD

             Bm                     F#m
I kao da je bilo nekad i kao da je bilo tu
             Bm                                    F#m
Pod velikim svetlim suncem, pod velikim svijetlim svodom
            Bm                F#m
Rucali smo meso, glodali smo kosti dobrih zivotinja
    Bm                                F#m
Mi imamo snage, mi imamo snage za jos dan

Em                        Bm
Mi menjamo dan za noc, mi menjamo noc za dan
Em                        F#m
Mi menjamo dan za noc, mi menjamo noc za dan

Prolaze brodovi, trube u cast, zvone na uzbunu
Deca uce da placu, deca uce da poznaju svoj glas
U toplim jaslama, u hladu bora, pod zidom cempresa
Mi menjamo nasu noc, za neki tudji dan, za neki tudji dan

Mi menjamo dan za noc, mi menjamo noc za dan     x2





   Bm
E--9-------9-------9-------9-------9----------|
B----12------12------12------12------12----12-|
G-------11------11------11------11------11----|
D---------------------------------------------|
A---------------------------------------------|
E---------------------------------------------|

                            2X, pa do unedogled
   F#m
E---------------------------------------------|
B--9-10----9-10----9-10----9-10----9-10----10-|
G-------11------11------11------11------11----|
D---------------------------------------------|
A---------------------------------------------|
E---------------------------------------------|




(Solo na klavijaturi, preradjen za gitaru)

      |       |       |       |         |       |       |       |
E-5-|-7-----------------------------4-|---------------4-----4-5---4-5|
B---|-----------------------5-7-5-7---|-7---------5-7-----7----------|
G---|-------------------6-7-----------|------------------------------|
D---|---------------------------------|------------------------------|
A---|---------------------------------|------------------------------|
E---|---------------------------------|------------------------------|


   |       |       |       |         |       |       |       |
E--7-----------------------------4-|---------------4-----4-5-------5-|
B------------------------5-7-5-7---|-7---------5-7-----7---------7---|
G--------------------6-7-----------|---------------------------6-----|
D----------------------------------|---------------------------------|
A----------------------------------|---------------------------------|
E----------------------------------|---------------------------------|


   |       |       |       |         |       |       |       |
E--4-------------5-4-------------5-|-4-5---4-5---4-5---4-5---4-5-4-5-|
B------7-------7-------7-------7---|-----7-----7-----7-----7---------|
G------------6---------------6-----|---------------------------------|
D----------------------------------|---------------------------------|
A----------------------------------|---------------------------------|
E----------------------------------|---------------------------------|


   |       |       |       |         |       |       |       |
E--4-------------5-4-------------5-|-4-5---4-5---4-5---4-5---4-5-----|
B------7-------7-------7-------7---|-----7-----7-----7-----7-----7-6-|
G------------6---------------6-----|---------------------------------|
D----------------------------------|---------------------------------|
A----------------------------------|---------------------------------|
E----------------------------------|---------------------------------|
Добавлено: 25.06.2012
Другие материалы по этой песне:
  • Аккорды и текст

Страница создана 25.06.2012
http://primanota.ru/ekv/kao-da-je-bilo-nekad-chords.htm
Привет, Гость.
Предлагаем пройти революционный курс по гитаре.
Подарок от PrimaNota.Ru, забирай!