PrimaNota.ru - самый крупный в мире бесплатный архив песенных текстов, аккордов, табулатур и нот


Ektomorf - Show Your Fist - текст песни, таба, видео

Регистрация Запомнить меня
Войти через:  Facebook Google Twitter Vk Yandex Mail.ru

Ektomorf - Show Your Fist - текст песни, таба, видео

Печатать
Просмотров: 239
Уроки эстрадного вокала в Санкт-Петербурге
----------------------------------------------------------------------------
                         SHOW YOUR FIST - Ektomorf
----------------------------------------------------------------------------
Tabbed by: James
Email: james.v13@gmail.com

Tuning: Dropped C

My first tab. Hope it makes sense lol. Corrections greatly appreciated :)

D|-----------------------|
A|-----------------------|
F|-----------------------|
C|-----------------------| x4   (Intro)
G|-----------------------|
C|-0h3-0h2-0-0h2-0-3-3-3-|


D|-----------------------|
A|-----------------------|
F|-----------------------|
C|-----------------------| x8   (Chorus)
G|-0-3-0-2-0-0-2-0-3-3-3-|
C|-0h3-0h2-0-0h2-0-3-3-3-|


D|-----7-7-------7-7-|---------------------|
A|-------------------|-------6-6-------6-6-|
F|-----4-4-------4-4-|---------------------|
C|-------------------|-------3-3-------3-3-| x2    (Specky)
G|-0-0---------------|---------------------|
C|-0-0-----0-0-0-----|-0-3-3-----0-3-3-----|


D|-----------------------|
A|-----------------------|
F|-----------------------|
C|-----------------------| x4   (Simple)
G|-0-0-0-0-1-0-0-0-0-1-1-|
C|-0-0-0-0-1-0-0-0-0-1-1-|


*Intro x 2


*Chorus x 8


*Specky x 2


*Simple x 4


D|-------|----|----|----|-------|----|----|----|
A|-------|----|----|----|-------|----|----|----|
F|-------|----|----|----|-7-----|----|----|----|
C|-0-----|----|----|----|-x-----|----|----|----| x4  (Drum interlude)
G|-0-----|----|----|----|-5-----|----|----|----|
C|-0-----|----|----|----|-------|----|----|----|
   Ring...............   Ring................


*Simple x 4


D|------------------------|------------------------|
A|------------------------|------------------------|
F|------------------------|------------------------|
C|------------------------|------------------------| x4
G|-0-0-0-0-1--0-0-0-0-1-1-|-0-0-0-0-1--0-0-0-0-4-1-|
C|-0-0-0-0-1--0-0-0-0-1-1-|-0-0-0-0-1--0-0-0-0-4-1-|


*3 bars rest letting ring..... use feedback


D|-----------------|     |-----------------|
A|-----------------|     |-----------------|
F|-----------------|     |-----------------|
C|-----------------| x3  |-----------------| x4    (Outro)
G|-0-4-0-3-0-0-4-4-|     |-0-0-0-0-0-0-0-0-| 
C|-0-4-0-3-0-0-4-4-|     |-0-0-0-0-0-0-0-0-|   

Добавлено: 23.03.2012
Другие материалы по этой песне:

Страница создана 23.03.2012
http://primanota.ru/ektomorf/show-your-fist-chords.htm
Привет, Гость.
Предлагаем пройти революционный курс по гитаре.
Подарок от PrimaNota.Ru, забирай!