PrimaNota.ru - самый крупный в мире бесплатный архив песенных текстов, аккордов, табулатур и нот


Ektomorf - Hell Is Here - таба, видео

Регистрация Запомнить меня
Войти через:  Facebook Google Twitter Vk Yandex Mail.ru

Ektomorf - Hell Is Here - таба, видео

Печатать
Просмотров: 148
Tuning: Drop B (B-F#-B-E-G#-C#)

Legend: S = sixteenth note
        E = eighth note
        Q = quarter note
        Q*= dotted quarter note (equivalent to three eighth notes)
        x = palm mute
        p = pull off

Riff A:

   E E Q   E E Q   E E Q   E E Q   E E Q   E E Q   E E Q   E E Q
C#|----------------------------------------------------------------|
G#|----------------------------------------------------------------|
E |----------------------------------------------------------------|
B |----------------------------------------------------------------|
F#|----0-------0-------0-------0-------0-------0-------0-------4---|
B |0-0-0---0-0-0---0-0-0---0-0-0---0-0-0---0-0-0---0-0-0---0-0-4---|
   x x     x x     x x     x x     x x     x x     x x     x x

Riff B:

   E SSSSSSSSSSSSE E SSSSSSSSSSSSE E SSSSSSSSSSSSE E SSSSSSSSSSSSSS
C#|-----------------------------------------------------------------|
G#|-----------------------------------------------------------------|
E |-----------------------------------------------------------------|
B |-----------------------------------------------------------------|
F#|0----------------------------------------------------------------|
B |0-0000000000001p0-0000000000001p0-0000000000001p0-00000044444444-|

Riff C:

    (all sixteenth notes)
C#|----------------------------------------------------------------|
G#|----------------------------------------------------------------|
E |----------------------------------------------------------------|
B |----------------------------------------------------------------|
F#|----------------------------------------------------------------|
B |0000000011111111111133334444111100000000111111111111333344441111

Riff D:

   E E E E E Q*    E E E E E Q*    E E E E E Q*    E E E E E E E E
C#|----------------------------------------------------------------|
G#|----------------------------------------------------------------|
E |----------------------------------------------------------------|
B |----------------------------------------------------------------|
F#|--4-3---4-3-------4-3---4-3-------4-3---4-3-------4-3---1-1-1-1-|
B |0-4-3-0-4-3-----0-4-3-0-4-3-----0-4-3-0-4-3-----0-4-3-0-1-1-1-1-|
   x     x         x     x         x     x         x     x

Riff E:

    (all eighth notes)
C#|----------------------------------------------------------------|
G#|--7-6---6---------7-6---6---------7-6---6---------7-6---6-------|
E |8-----8---8-7-8-8-----8---8-7-8-8-----8---8-7-8-8-----8---8-7-8-|
B |----------------------------------------------------------------|
F#|----------------------------------------------------------------|
B |----------------------------------------------------------------|
    (play all notes with wah)

Riff F:

   Q   E Q*    Q   E E E Q*   Q    Q   E Q*    Q   E E E Q*   Q
C#|----------------------------------------------------------------|
G#|------7----(7)----7-------------------7----(7)----7-------------|
E |7---8-----------8---8-7---(7)---7---8-----------8---8-7---(7)---|
B |----------------------------------------------------------------|
F#|----------------------------------------------------------------|
B |----------------------------------------------------------------|

Structure:

Riff A x2
Riff B x2
Riff C x2
Riff A x1
Riff B x4
Riff D x2
Riff E x1
Riff E (with second guitar playing the same riff an octave higher) x1
Riff A x1
Riff B x4
Riff D x2
Riff E x1
Riff E (with second guitar playing the same riff an octave higher) x1
Riff C x2
Riff F x10
Добавлено: 17.01.2014
Другие материалы по этой песне:
  • Аккорды и текст

Страница создана 17.01.2014
http://primanota.ru/ektomorf/hell-is-here-chords.htm
Привет, Гость.
Предлагаем пройти революционный курс по гитаре.
Подарок от PrimaNota.Ru, забирай!