PrimaNota.ru - самый крупный в мире бесплатный архив песенных текстов, аккордов, табулатур и нот


Eisregen - Westwrts - таба

Регистрация Запомнить меня
Войти через:  Facebook Google Twitter Vk Yandex Mail.ru

Eisregen - Westwrts - таба

Печатать
Просмотров: 114
Уроки эстрадного вокала в Санкт-Петербурге
Interpret: Eisregen
Album: Hexenhaus
Tuning: Standart

Verse:

e|---------|----------|----------------------------------------------------|
a|---------|----------|----------------------------------------------------|
g|-7-------|----------|----------------------------------------------------|
D|-7-------|--5-------|-33333333333333333333333333333333333333333333333333-|
A|-5--x 30-|--5--x 30-|-33333333333333333333333333333333333333333333333333-|
E|-5-------|--3-------|-11111111110001111111111000111111111100011111111110-|
   PM      |  PM      | |_____________________tremolo____________________|

Bridge 1:

e|-----------------------------------------------------------|
a|-----------------------------------------------------------|
g|-7---------------------------------------------------------|
D|-7-------------------------------7-------------------------|
A|-5-------------------------------7-------------------------|
E|-5-------------------------------5-------------------------|


Brigde 2:

e|-----------------------------------------------------------|
a|-----------------------------------------------------------|
g|-77777------77777------------------------------------------|
D|-77777------77777------55555------55555--------------------|
A|-55555------55555------55555------55555--------------------|
E|-55555------55555------33333------33333--------------------|
    PM         PM         PM         PM


Play:


Verse:       x 1

Bridge 1:    x 2

Verse:       x 2

Bridge 1:    x 2

Verse:       x 2

Bridge 2:    x 2

Verse:       x 2

Bridge 2:    x 3

Verse:       x 2
Добавлено: 04.03.2012
Другие материалы по этой песне:
  • Аккорды и текст

Страница создана 04.03.2012
http://primanota.ru/eisregen/westwrts-chords.htm
Привет, Гость.
Предлагаем пройти революционный курс по гитаре.
Подарок от PrimaNota.Ru, забирай!