PrimaNota.ru - самый крупный в мире бесплатный архив песенных текстов, аккордов, табулатур и нот


Eisregen - Schwarze Rose - текст песни, таба, видео

Регистрация Запомнить меня
Войти через:  Facebook Google Twitter Vk Yandex Mail.ru

Eisregen - Schwarze Rose - текст песни, таба, видео

Печатать
Просмотров: 144
E a d g b e

00:20  2 x acoustic part like this:

-------5---5----5----5----3---3-----3----3------------------------------------|
------5---5-5--5----5----3---3-3---3----3-------------------------------------|
------------------------------------------------------------------------------|
------------------------------------------------------------------------------|
----7----7----7----7----5----5----5----5--------------------------------------|
------------------------------------------------------------------------------|

00:55 1 x Riff 1

------------------------------------------------------------------------------|
------------------------------------------------------------------------------|
------------------------------------------------------------------------------|
------------------------------------------------------------------------------|
----7--77--7------7-77-7------5-55-5------5-55-5------------------------------|
----5--55--5------5-55-5------3-33-3------3-33-3------------------------------|
       **           **          **          **

01:11 1 x Riff 2

------------------------------------------------------------------------------|
------------------------------------------------------------------------------|
------------------------------------------------------------------------------|
------------------------------------------------------------------------------|
----7--77--7------5-55-5------7-77-7------5-55-5------------------------------|
----5--55--5------3-33-3------5-55-5------3-33-3------------------------------|
       **           **          **          **


01:27 2 x Riff 3
------------------------------------------------------------------------------|
------------------------------------------------------------------------------|
------------------------------------------------------------------------------|
----3-3-3-3-3-3-3-3--2-2-2-2-2-2-2-2--5-5-5-5-5-5-5-5-------------------------|
--------------------------------------3-3-3-3-3-3-3-3--5-5-5-5-5-5-5-5--------|
-------------------------------------------------------3-3-3-3-3-3-3-3--------|


------------------------------------------------------------------------------|
------------------------------------------------------------------------------|
------------------------------------------------------------------------------|
----3-3-3-3-3-3-3-3--7-7-7-7-7-7-7-7--5-5-5-5-5-5-5-5-------------------------|
---------------------5-5-5-5-5-5-5-5--3-3-3-3-3-3-3-3--5-5-5-5-5-5-5-5--------|
-------------------------------------------------------3-3-3-3-3-3-3-3--------|

01:57 1 x Riff 1

------------------------------------------------------------------------------|
------------------------------------------------------------------------------|
------------------------------------------------------------------------------|
------------------------------------------------------------------------------|
----7--77--7------7-77-7------5-55-5------5-55-5------------------------------|
----5--55--5------5-55-5------3-33-3------3-33-3------------------------------|
       **           **          **          **

02:11 1 x Riff 2

------------------------------------------------------------------------------|
------------------------------------------------------------------------------|
------------------------------------------------------------------------------|
------------------------------------------------------------------------------|
----7--77--7------5-55-5------7-77-7------5-55-5------------------------------|
----5--55--5------3-33-3------5-55-5------3-33-3------------------------------|
       **           **          **          **

02:26 4 x Riff 4
------------------------------------------------------------------------------|
------------------------------------------------------------------------------|
------------------------------------------------------------------------------|
------------------------------------------------------------------------------|
-----7-----5----5---2----3----3-----------------------------------------------|
-----5-55--3-33-33--0-00-1-11-11----------------------------------------------|
       **    **  *    **   **  *


02:40 2 x Riff 5

------------------------------------------------------------------------------|
------------------------------------------------------------------------------|
------------------------------------------------------------------------------|
--22222-3202------------------------------------------------------------------|
--00000-----32-----33333333-55555555------------------------------------------|
-------------------11111111-33333333------------------------------------------|
                   ******** ********


02:55 4 x Riff 4

------------------------------------------------------------------------------|
------------------------------------------------------------------------------|
------------------------------------------------------------------------------|
------------------------------------------------------------------------------|
-----7-----5----5---2----3----3-----------------------------------------------|
-----5-55--3-33-33--0-00-1-11-11----------------------------------------------|
       **    **  *    **   **  *

03:09 2 x acoustic part like this:

-------5---5----5----5----3---3-----3----3------------------------------------|
------5---5-5--5----5----3---3-3---3----3-------------------------------------|
------------------------------------------------------------------------------|
------------------------------------------------------------------------------|
----7----7----7----7----5----5----5----5--------------------------------------|
------------------------------------------------------------------------------|


03:39 4 x Riff 4
------------------------------------------------------------------------------|
------------------------------------------------------------------------------|
------------------------------------------------------------------------------|
------------------------------------------------------------------------------|
-----7-----5----5---2----3----3-----------------------------------------------|
-----5-55--3-33-33--0-00-1-11-11----------------------------------------------|
       **    **  *    **   **  *


03:54 2 x Riff 5

------------------------------------------------------------------------------|
------------------------------------------------------------------------------|
------------------------------------------------------------------------------|
--22222-3202------------------------------------------------------------------|
--00000-----32-----33333333-55555555------------------------------------------|
-------------------11111111-33333333------------------------------------------|
                   ******** ********


04:08 12 x Riff 4                                  end achord:
-------------------------------------------------|----------------------------|
-------------------------------------------------|----------------------------|
-------------------------------------------------|----------------------------|
-------------------------------------------------|----------------------------|
-----7-----5----5---2----3----3------------------|------7---------------------|
-----5-55--3-33-33--0-00-1-11-11-----------------|------5---------------------|
       **    **  *    **   **  *

(play the violin on guitar like this:

6 x
-------8---7-5-0----0-8---7-5-0-----------------------------------------------|
----------------------------------3-55-6-5-3-------6----5-3-------------------|
------------------------------------------------------------------------------|
----------------------------------------------5--5-----------5----------------|
------------------------------------------------------------------------------|
------------------------------------------------------------------------------|

2 x

-------8---7-5-0--------------------------------------------------------------|
---------------------3-55-6-5-3-----------------------------------------------|
------------------------------------------------------------------------------|
-----------------------------------5--5---------------------------------------|
------------------------------------------------------------------------------|
------------------------------------------------------------------------------|


------8---7--8-10-8-7-8-------------------------------------------------------|
--------------------------6-5-------------------------------------------------|
------------------------------------------------------------------------------|
------------------------------------------------------------------------------|
------------------------------------------------------------------------------|
------------------------------------------------------------------------------|
and so on.........)


END.....
Добавлено: 21.06.2012
Другие материалы по этой песне:
  • Аккорды и текст

Страница создана 05.04.2012
http://primanota.ru/eisregen/schwarze-rose-chords.htm
Привет, Гость.
Предлагаем пройти революционный курс по гитаре.
Подарок от PrimaNota.Ru, забирай!