PrimaNota.ru - самый крупный в мире бесплатный архив песенных текстов, аккордов, табулатур и нот


Eisregen - Schlachthaus Blues - таба, видео

Регистрация Запомнить меня
Войти через:  Facebook Google Twitter Vk Yandex Mail.ru

Eisregen - Schlachthaus Blues - таба, видео

Печатать
Просмотров: 107
Уроки эстрадного вокала в Санкт-Петербурге
Interpret: Eisregen
Tuning: A step Down


Intro/Riff 1:

G - C - G - C 

C - A - C - C


Riff 2:

d|--------------|
a|--------------|
f|----------54--|
C|-22222-55554--|
G|-22222-55532--|
D|-00000-33333--|
PM:       ..


Riff 3:

d|---|
a|---|
d|---|
C|-2-|
G|-2-|
D|-0-|


Riff 4:

d|---------------------------------------------|
a|---------------------------------------------|
d|---------------------------------------------|
C|-------------5-55555555----------------------|
G|-7-7777-7777-3-33333333-7-7777-7777-5-555555-|
D|-5-5555-5555-3-33333333-5-5555-5555-3-333333-|
PM   ..   ..     ..  ..     ..   ..     ....


(Interlud Guitar in the secound play of that riff)

d|---------------------------------------------|
a|---------------------------------------------|
d|---------------------------------------------|
C|----2-----------------------------2----------|
G|-0----32-0-3-3-5-3-2-3-2-0-----0-------------|
D|-------------------------------------3~------|


Fade out:

|---|
|---|
|---|
|-2-|
|-2-|
|-0-|

figure out yourself
Добавлено: 27.03.2012
Другие материалы по этой песне:
  • Аккорды и текст

Страница создана 27.03.2012
http://primanota.ru/eisregen/schlachthaus-blues-chords.htm
Привет, Гость.
Предлагаем пройти революционный курс по гитаре.
Подарок от PrimaNota.Ru, забирай!