PrimaNota.ru - самый крупный в мире бесплатный архив песенных текстов, аккордов, табулатур и нот


Eisregen - Nur Dein Fleisch - текст песни, таба, видео

Регистрация Запомнить меня
Войти через:  Facebook Google Twitter Vk Yandex Mail.ru

Eisregen - Nur Dein Fleisch - текст песни, таба, видео

Печатать
Просмотров: 145
Уроки эстрадного вокала в Санкт-Петербурге
Artist: Eisregen
Tuning: A step Down


PM - palm muting
W.D.- with Distortion


Intro clean

d|--------------------------------------------|
a|--------------------------------------------|
F|--------------------------------------------|
C|---7----6----4---4------7----6----4--04-----|
G|--5-5--4-4--2-2---2----5-5--4-4--2-2---2----|
D|-5----4----2---2---2--5----4----2---2---2---|


Riff 1 w. D.

d|------------------|
a|------------------|
F|-7777-666-4444444-|
C|-7777-666-4444444-|
G|-5555-444-2222222-|
D|------------------|
PM  ...  .. .......


Riff 2 w.D.

d|--------------------------|
a|--------------------------|
F|--------------------------|
C|-999999-777777-5555555555-|
G|-777777-777777-5555555555-|
D|-777777-555555-3333333333-|


Riff 3 w.D.

d|----------------------------|
a|----------------------------|
F|----------------------------|
C|-4~-----7~-----9~------4~---|
G|-4~-----7~-----9~------4~---|
D|-2~-----5~-----7~------2~---|

d|----------------------------|
a|----------------------------|
F|----------------------------|
C|-4~-----7~-----9~------7~---|
G|-4~-----7~-----7~------7~---|
D|-2~-----5~-----7~------5~---|


Riff 4 w.D.

d|------------------------------|
a|------------------------------|
F|------------------------------|
C|-444444-777777-999999-444444--|
G|-444444-777777-999999-444444--|
D|-222222-555555-777777-222222--|

d|------------------------------|
a|------------------------------|
F|------------------------------|
C|-444444-777777-222222-777777--|
G|-444444-777777-222222-777777--|
D|-222222-555555-000000-555555--|


Riff 5 clean

d|------------------------------|
a|------------------------------|
F|------------------------------|
C|------------------------------|
G|---------------222222---------|
D|-222222-555555--------222222--|

d|------------------------------|
a|------------------------------|
F|------------------------------|
C|------------------------------|
G|---------------777777-555555--|
D|-222222-555555----------------|


Riff 6 W.D.

d|-------|
a|-------|
F|-7--6--|
C|-7--6--|
G|-5--4--|
D|-------|


Play

Intro    2x
Riff 1   4x
Riff 2   2x
Riff 1   4x
Riff 2   2x
Riff 3   1x
Riff 4   2x
Riff 5   3x
Riff 6   1x
Riff 1   4x
Riff 2   2x
Riff 1   4x
Riff 2   4x
Riff 1   4x
Intro    1x


End with (clean)

d|----|
a|----|
F|-7~-|
C|-7~-|
G|-5~-|
D|-5~-|

thats it, i have no ideas for the strange solo, because i am not sure that the guitar
that solo or the keybord. comments and else at deathunlimitedaustri@hotmail.com


thats it, i have no ideas for the strange solo, because i am not sure that the guitar
that solo or the keybord. comments and else at deathunlimitedaustri@hotmail.com
Добавлено: 02.05.2012
Другие материалы по этой песне:
  • Аккорды и текст

Страница создана 25.03.2012
http://primanota.ru/eisregen/nur-dein-fleisch-chords.htm
Привет, Гость.
Предлагаем пройти революционный курс по гитаре.
Подарок от PrimaNota.Ru, забирай!