PrimaNota.ru - самый крупный в мире бесплатный архив песенных текстов, аккордов, табулатур и нот


Eisregen - Meine Tote Russische Freundin - текст песни, таба, видео

Регистрация Запомнить меня
Войти через:  Facebook Google Twitter Vk Yandex Mail.ru

Eisregen - Meine Tote Russische Freundin - текст песни, таба, видео

Печатать
Просмотров: 164
Уроки эстрадного вокала в Санкт-Петербурге
Tunning: E (E-A-D-G-B-e)

Bridge A
|---------------------------------------------|
|---------------------------------------------|
|---------------------------------------------|
|---------------------------------------------|
|---------------------------------------------|
|--3-3-3-3-6-6-6-6-3-3-3-3-6-6-6-6-x-x-x-x----|

Riff A
|--------------------------------------------------------------------|
|--------------------------------------------------------------------|
|--------------------------------------------------------------------|
|--------------------------------------------------------------------|
|---------------------------------5-5-5-5-3-3-3-3-2-2-2-2-3-3-3-3----|
|-3-3-3-3-6-6-6-6-3-3-3-3-6-6-6-6------------------------------------|

Interlude
    		         4x                      4x
||-------------------||-||-------------------||
||*-1-1-1-1-1-1-1-1-*||-||*-4-4-4-4-4-4-4-4-*||
||-------------------||-||-------------------||
||-------------------||-||-------------------||
||*-----------------*||-||*-----------------*||
||-------------------||-||-------------------||

Riff B
||--------------------------------------------------------------------|
||*-------------------------------------------------------------------|
||--------------------------------------------------------------------|
||----------------------------------------------------------5-5-5-5---|
||*---------------------------------3-3-3-3-5-5-5-5-6-6-6-6-----------|
||--3-3-3-3-5-5-5-5-6-6-6-6-5-5-5-5-----------------------------------|

|------------------------------------------------------------------||
|-----------------------------------------------------------------*||
|------------------------------------------------------------------||
|------------------------------------------------------------------||
|---------------------------------------------------------5-5-5-5-*||
|-3-3-3-3-5-5-5-5-6-6-6-6-5-5-5-5-3-3-3-3-1-1-1-1-0-0-0-0----------||


Chorus A			B
||------------||-||---------------------------||----|
||*----------*||-||*-------------------------*||----|
||---5--------||-||--x-x-5--------------------||----|
||---5-5-3-5--||-||--x-x-5-x-x-5-x-x-3-x-x-5--||----|
||*--3-5-3-5-*||-||*-x-x-3-x-x-5-x-x-3-x-x-5-*||----|
||-----3-1-3--||-||--------x-x-3-x-x-1-x-x-3--||----|





Order:

Intro: (Konnte ich leider nicht korrekt raushцren! SORRY!!!)
Bridge A:		1 X
Riff A:		4 X
Interlude:	2 X
Riff A:		5 X (???)
Interlude:	4 X
Riff B:		5 X (???)
Chorus A:		2 X (Clean mit leichtem Reverb!) (-->Akkorde C-G-F-G)
Chorus B:		4 X
Chorus A:		2 X (Clean mit leichtem Reverb!)
Chorus B:		4 X
Bridge B:		1 X (Bridge A nur die Muted Tцne!)
Riff B:		4 X
Chorus A:		2 X (Clean mit leichtem Reverb!)
Chorus B:		4 X
Chorus B:		4 X (Palm Mute mit selber Rhythmik)
Chorus B:		4 X (Normal)
Outro:		Chorus B 2 X
Optional Fill A
Ende:		C-G-C als Powershots (Quartakkorde!)

---------------------------
Fill A

|------------------------------------------------
|------------------------------------------------
|------------------------------------------------
|------------------------------------------------
|--3-3-3-3---------------------------------------
|----------3-3-3-3--1-1-1-1-3-3-3-3--------------

|------------------------------------------------
|------------------------------------------------
|------------------------------------------------
|------------------------------------------------
|--3-3-3-3-5-5-5-5-6-6-6-6-5-5-5-5---------------
|------------------------------------------------

Ende:
|-----------
|-----------
|-----------
|--5---5----
|--3-5-3----
|----3------
Добавлено: 22.04.2012
Другие материалы по этой песне:

Страница создана 13.03.2012
http://primanota.ru/eisregen/meine-tote-russische-freundin-chords.htm
Привет, Гость.
Предлагаем пройти революционный курс по гитаре.
Подарок от PrimaNota.Ru, забирай!