PrimaNota.ru - самый крупный в мире бесплатный архив песенных текстов, аккордов, табулатур и нот


Eisregen - Eisenkreuzkrieger - таба, видео

Регистрация Запомнить меня
Войти через:  Facebook Google Twitter Vk Yandex Mail.ru

Eisregen - Eisenkreuzkrieger - таба, видео

Печатать
Просмотров: 114
Interpret: Eisregen
Tuning: A step down


Riff 1

d|------------------------------------------------|
a|------------------------------------------------|
f|-55555555555555555555---------------------------|
C|-555555555555555555557777777777777777777777777--|
G|-333333333333333333337777777777777777777777777--|
D|-333333333333333333335555555555555555555555555--|
PM  .. ..   .. .. .. .... .. .. .   .. .. .. 



Verse

d|---------------------------------|
a|---------------------------------|
f|---------------------------------|
C|-3/2-22-22222-3/2-22-3/5/5/5/3/2-|
G|-3/2-22-22222-3/2-22-3/5/3/5/3/2-|
D|-1/0-00-00000-1/0-00-1/3/3/3/1/0-|
PM     .. .....     ..         


Chorus

d|----------------------------|
a|----------------------------|
f|-7-777---------------7-77---|
C|-7-777---3-333-5-555-7-77---|
G|-5-555---3-333-5-555-5-55---|
D|-5-555/0-1-111-3-333-5-55---|


Bridge

d|----------------|
a|----------------|
f|----------------|
C|-7---5---3---2--|
D|----------------|
G|----------------|


Outro

d|-------|
a|-------|
f|-----7-| let ring out
C|-3-2-7-|
G|-3-2-5-|
D|-1-0-5-|



figure out yourself
Добавлено: 09.06.2012
Другие материалы по этой песне:

Страница создана 26.03.2012
http://primanota.ru/eisregen/eisenkreuzkrieger-chords.htm
Привет, Гость.
Предлагаем пройти революционный курс по гитаре.
Подарок от PrimaNota.Ru, забирай!