PrimaNota.ru - самый крупный в мире бесплатный архив песенных текстов, аккордов, табулатур и нот


Eisregen - Das Kleine Leben - текст песни, таба, видео

Регистрация Запомнить меня
Войти через:  Facebook Google Twitter Vk Yandex Mail.ru

Eisregen - Das Kleine Leben - текст песни, таба, видео

Печатать
Просмотров: 159
Artist: Eisregen
Tuning: A step Down (D-G-C-f-a-d)



Intro/Riff 1

d|---------------------------------------|
a|---------------------------------------|
f|---------------------------------------|
C|----------7--6---4----------5-------5--|
G|--4----4------------3---3--------3-----|
D|---------------------------------------|


Riff 2

d|---------------------------------------|
a|-----------------------------8------8--|
f|-----------9---8---6--5---5------5-----|
C|--6----6-------------------------------|
G|---------------------------------------|
D|---------------------------------------|


Riff 3

d|------------------------------------|
a|------------------------------------|
f|-----------6------------------------|
C|--4----4------4----2----2----0---2--|
G|------------------------------------|
D|------------------------------------|


Riff 4
                
d|-----------------------------------|
a|-----------------------------------|
f|-----------------------------------|
C|--44444444445555555555--5---4---2--|
G|--44444444445555555555-------------|
D|--22222222223333333333-------------|
PM  .................... 

d|---------------------|
a|---------------------|
f|---------------------|
C|-4444444444222222222-|
G|-4444444444222222222-|
D|-2222222222000000000-|
PM ...................


Riff 5

d|------------------------|
a|------------------------|
f|-77777777777------------|
C|-7777777777799999999999-|
G|-5555555555599999999999-|
D|------------77777777777-|
PM ......................


Riff 6
  
d|----------------------------|
a|----------------------------|
f|-7-7-7-777-7-7-7-7744444444-|
C|-7-7-7-777-7-7-7-7744444444-|
G|-5-5-5-555-5-5-5-5522222222-|
D|----------------------------|


Riff 7
  
d|-----------|
a|-----------|
f|-7-7-7-777-|
C|-7-7-7-777-|
G|-5-5-5-555-|
D|-----------|


Riff 8

d|---------------------------------------------------------------------|
a|---------------------------------------------------------------------|
f|-----7-------7-------7-------7--------10-------10------10------10----|
C|---7---7---7---7---7---7---7---7----10--10---10--10--10--10--10--10--|
G|-5-------5-------5-------5--------8--------8-------8-------8---------|
D|---------------------------------------------------------------------|


Riff 9

d|---------------------|
a|---------------------|
f|------------------4--|
C|-9999999999--7--6----|
G|-9999999999----------|
D|-7777777777----------|
PM ..........


Riff 10
(Variant 1)
d|-------------------------------------------|
a|-------------------------------------------|
f|------------7-777---77---------------------|
C|-9-999---9997-777---7744444444445555555555-|
G|-9-999---9995-555---5544444444445555555555-|
D|-7-777---7775-555---5522222222223333333333-|
PM                      ....................

(Variant 2)

d|-------------------------------------------------------------|
a|-------------------------------------------------------------|
f|444444444477777777771111111111111111111112121212121212121212-|
C|444444444477777777771111111111111111111112121212121212121212-|
G|222222222255555555559-9-9-9-9-9-9-9-9-9-10101010101010101010-|
D|-------------------------------------------------------------|


Riff 11

d|---------------|
a|---------------|
f|-----------555-|
C|--4444-444-----|
G|--4444---------|
D|--2222---------|
PM  ....

d|---------------|
a|---------------|
f|---------------|
C|--4444-222-111-|
G|--4444---------|
D|--2222---------|
PM  ....




Play:

 
Intro:       6x
Riff 2:      2x
Riff 3:      2x
Riff 4:      1x
Riff 3:      2x
Riff 4:      1x
Riff 3:      2x
Riff 4:      1x
Riff 5:      4x
Riff 6:      2x
Riff 5:      2x
Riff 7:      1x
Riff 8:      4x
Riff 6:      2x 
Riff 5:      4x
Riff 9:      4x
Riff 6:      1x
Riff 9:      4x
Riff 10:    14x
Riff 11:     8x
Riff 5:      4x
Riff 6:      2x
Riff 5:      4x


tabbed by deathunlimitedaustria@hotmail.com
Добавлено: 03.03.2012
Другие материалы по этой песне:
  • Аккорды и текст

Страница создана 03.03.2012
http://primanota.ru/eisregen/das-kleine-leben-chords.htm
Привет, Гость.
Предлагаем пройти революционный курс по гитаре.
Подарок от PrimaNota.Ru, забирай!