PrimaNota.ru - самый крупный в мире бесплатный архив песенных текстов, аккордов, табулатур и нот


Eisregen - Blutgeil - текст песни, таба, видео

Регистрация Запомнить меня
Войти через:  Facebook Google Twitter Vk Yandex Mail.ru

Eisregen - Blutgeil - текст песни, таба, видео

Печатать
Просмотров: 135
Artist: Eisregen
Tuning: A step Down


Riff 1:

d|------------------|
a|------------------|
f|-----7------------|
C|-7---7---0/3-5-7--|
G|-7---5---0/3-5-7--|
D|-5---5---0/1-3-5--|


Riff 2/Clean Part:

d|-0---2-----1-3-0--|
a|-2---3-----1-0-2--|
f|-2---2---0/2-0-2--|
C|-2---0---0/3-0-2--|
G|-0---0---0/3-2-0--|
D|-x---x-----1-3-x--|


Bridge to Riff 3:

d|------------------------------|
a|------------------------------|
f|-----7-----------------4------|
C|-7---7---0/3-5-2-----2-4-7--9-|
G|-7---5---0/3-5-2-----2-2-7--9-|
D|-5---5---0/1-3-0-----0---5--7-|


Riff 3:

d|---|     |---|     |------|
a|---|     |---|     |------|
f|-5-|     |---|     |------|
C|-5-| x20 |-3-| x10 |(0/)5-| x 30
G|-3-|     |-3-|     |(0/)5-|
D|-3-|     |-1-|     |(0/)3-|
PM .         .           


Riff 4: 

d|---------------------------------------|
a|---------------------------------------|
f|-------------7-------------77777777777-|
C|-7---5---9---7-----7---5---77777777777-|
G|-7---5---9---5-----7---5---55555555555-|
D|-5---3---7---5-----5---3---55555555555-|
PM                           ...........


Let Ring out

d|---|
a|---|
f|-7-|
C|-7-|
G|-5-|
D|-5-|



Figure out yourself

Tabbed by deathunlimitedaustria@hotmail.com
Добавлено: 07.06.2012
Другие материалы по этой песне:

Страница создана 13.04.2012
http://primanota.ru/eisregen/blutgeil-chords.htm
Привет, Гость.
Предлагаем пройти революционный курс по гитаре.
Подарок от PrimaNota.Ru, забирай!