PrimaNota.ru - самый крупный в мире бесплатный архив песенных текстов, аккордов, табулатур и нот


Eisley - Mr. Pine - текст песни, таба, видео

Регистрация Запомнить меня
Войти через:  Facebook Google Twitter Vk Yandex Mail.ru

Eisley - Mr. Pine - текст песни, таба, видео

Печатать
Просмотров: 107
This is my first tab. It's pretty close I'm sure of that. 

Keyboard Intro for Guitar
e----5-------------------------------------|
B--5---5---3h5-----------------------------|
G------------------------------------------|
D------------------------------------------|
A------------------------------------------|
E------------------------------------------|

Then the guitar is gonna come in and the keyboard does this:

e----5---------0-2-0---------------|
B--5---5---1-3-------3-------------|
G----------------------------------|
D----------------------------------|
A----------------------------------|
E----------------------------------|

The bass is gonna play this:
e----------------------------------|
B----------------------------------|
G----------------------------------|
D------------2-4-2-----------------| 
A---12-7-3-5--------5--------------|
E-5--------------------------------|  

The guitar part during the chorus is:
e----------------------------------|
B----------------------------------|
G----------------------------------|
D----------------------------------| 
A----------------------------------|
E-15-15-15--13-13-12-12-12--4-4-4-4|

I'll add some more of this later.  
Добавлено: 08.11.2013
Другие материалы по этой песне:
  • Аккорды и текст

Страница создана 28.06.2012
http://primanota.ru/eisley/mr-pine-chords.htm
Привет, Гость.
Предлагаем пройти революционный курс по гитаре.
Подарок от PrimaNota.Ru, забирай!