PrimaNota.ru - самый крупный в мире бесплатный архив песенных текстов, аккордов, табулатур и нот


Eirik Softeland - Gonna Go My Way - бас-таба, видео

Регистрация Запомнить меня
Войти через:  Facebook Google Twitter Vk Yandex Mail.ru

Eirik Softeland - Gonna Go My Way - бас-таба, видео

Печатать
Просмотров: 74
Made of Kobba


Intro

G|---------------------------------|
D|---------------------------------| x2
A|---------------------------------|
E|---0------5----------------------|



G|--------------------------------|
D|--------------------------------| x 3
A|--------------------------------|
E|--0--0--0--0--5--5--5--5--------|



G|--------------------------------------------------------------------------|
D|--------------------------------------------------------------------------| x1
A|--------------------------2--2--2--2--2--2--2--2--3--3--3--3--3--3--3--3--|
E|--2--2--2--2--2--2--2--2--------------------------------------------------|



G|--------------------------------|
D|--------------------------------| x 4
A|--------------------------------|
E|--0--0--0--0--5--5--5--5--------|


G|---------------------------------|
D|---------------------------------| x2
A|---4--4--4--4--------------------|
E|---------------5--5--5--5--------|


G|--------------------------------|
D|--------------------------------| x 6
A|--------------------------------|
E|--0--0--0--0--5--5--5--5--------|


G|--------------------------------------------------------------------------|
D|--------------------------------------------------------------------------| x1
A|--------------------------2--2--2--2--2--2--2--2--3--3--3--3--3--3--3--3--|
E|--2--2--2--2--2--2--2--2--------------------------------------------------|



G|--------------------------------|
D|--------------------------------| x 4
A|--------------------------------|
E|--0--0--0--0--5--5--5--5--------|


G|---------------------------------|
D|---------------------------------| x1
A|---4--4--4--4--------------------|
E|---------------5--5--5--5--------|


G|--------------------------------|
D|--------------------------------| x 1
A|--------------------------------|
E|--0--0--0--0--5--5--5--5--------|


G|---------------------------------------------------------------------------|
D|---------------------------------------------------------------------| x 1-|
A|--------------------------------------2--2--2--2--5--5--5--5---------------|
E|--2--2--2--5--5--5--5--5--5--5--5--5--------------------------5--5--5--5---|


G|------------------------------------------|
D|------------------------------------------| x 1
A|------------------------------------------|
E|--2--2--2--2--5--5--5--5--3--3--3--3--3--3|



G|--------------------------------------------------------------|
D|--------------------------------------------------------------| x 1
A|--------------------------------------------------5--5--5--5--|
E|--0--0--0--0--5--5--5--5--0--0--0--0--5--5--5--5--------------|


G|--------------------------------|
D|--------------------------------| x 4
A|--------------------------------|
E|--0--0--0--0--5--5--5--5--------|


G|---------------------------------|
D|---------------------------------| x2
A|---4--4--4--4--------------------|
E|---------------5--5--5--5--------|


G|--------------------------------|
D|--------------------------------| x 2
A|--------------------------------|
E|--0--0--0--0--5--5--5--5--------|


G|------------|
D|------------| x 1
A|------------|
E|--0---------|
Добавлено: 12.11.2013
Другие материалы по этой песне:
  • Аккорды и текст

Страница создана 12.11.2013
http://primanota.ru/eirik-softeland/gonna-go-my-way-chords.htm
Привет, Гость.
Предлагаем пройти революционный курс по гитаре.
Подарок от PrimaNota.Ru, забирай!