PrimaNota.ru - самый крупный в мире бесплатный архив песенных текстов, аккордов, табулатур и нот


Eino Kettunen - Ievan Polka - бас-таба, видео

Регистрация Запомнить меня
Войти через:  Facebook Google Twitter Vk Yandex Mail.ru

Eino Kettunen - Ievan Polka - бас-таба, видео

Печатать
Просмотров: 85
Уроки эстрадного вокала в Санкт-Петербурге
G------------------- (x3 G----------
D--4-----4--------2-     D--4-----4-
A-----4------4------     A-----4----
E-------------------     E----------

Rest of the song:
G------------------------------------------------------------------
D--4------2---4------2------2-------4-----2----4-----2----4--------
A------4----------4-----4------4--------4---------4---------------
E------------------------------------------------------------------

G------------------------------------------------------------------
D----2------2-----4-----2--4------2---------2------2------4--------
A-4-----4------4-----4---------4-----4---4-----4------4------------
E------------------------------------------------------------------

G------------------------------------------------------------------
D------------------------------------------------------------------
A---2----4-----2----4----2------2-------4--------------------------
E-4---------4---------4-----4------4-------------------------------

I found this lying around somewhere and made some changes to make it easier to play tell me if i made mistakes.
Добавлено: 08.03.2016
Другие материалы по этой песне:
  • Аккорды и текст

Страница создана 08.03.2016
http://primanota.ru/eino-kettunen/ievan-polka-chords.htm
Привет, Гость.
Предлагаем пройти революционный курс по гитаре.
Подарок от PrimaNota.Ru, забирай!