PrimaNota.ru - самый крупный в мире бесплатный архив песенных текстов, аккордов, табулатур и нот


Eighties Matchbox B-line Disaster - Temple Music - таба, видео

Регистрация Запомнить меня
Войти через:  Facebook Google Twitter Vk Yandex Mail.ru

Eighties Matchbox B-line Disaster - Temple Music - таба, видео

Печатать
Просмотров: 104
-----------------------------------------------------------------------------
             Temple Music - Eighties Matchbox B-line Disaster
-----------------------------------------------------------------------------
Tabbed by: David Grief
Email: davidgrief@hotmail.com

Tuning: Standard

| /  slide up
| \  slide down
| h  hammer-on
| p  pull-off
| ~  vibrato
| +  harmonic
| x  Mute note

intro
e|---------------------------------------------------------------------|
B|---------------------------------------------------------------------|
G|-------2---------2---------2-----------------------------------------|
D|----2--2--2---2--2--2---2--2--2---5-xx-4-xx-2------------------------| 
A|----2--0--2---2--0--2---2--0--2---5-xx-4-xx-2------------------------|
E|----0-----0---0-----0---0-----0---3-xx-2-xx-0------------------------|

verse
e|---------------------------------------------------------------------|
B|---------------------------------------------------------------------|
G|---------------------------------------------------------------------|
D|----9-xx-10-xx-9---9-xx-10-xx-9---9-xx-10-xx-9---5-xx-4-xx-2---------|
A|----9-xx-10-xx-9---9-xx-10-xx-9---9-xx-10-xx-9---5-xx-4-xx-2---------|
E|----7-xx-8--xx-7---7-xx-8--xx-7---7-xx-8--xx-7---3-xx-2-xx-0---------|

chorus part 1
e|---------------------------------------------------------------------|
B|---------------------------------------------------------------------|
G|--------------------------9-9-9--------------------------------------|
D|---5--5-5--4--5--4--2--2--9-9-9--------------------------------------|
A|---5--5-5--4--5--4--2--2--7-7-7--------------------------------------|
E|---3--3-3--2--3--2--0--0---------------------------------------------|

e|---------------------------------------------------------------------|
B|---------------------------------------------------------------------|
G|-------------------------5-xx-4--4-----------------------------------|
D|---5--5-5--4--5--4--2-xx-5-xx-4--4-----------------------------------|
A|---5--5-5--4--5--4--2-xx-3-xx-2--2-----------------------------------|
E|---3--3-3--2--3--2--0-xx---------------------------------------------|

chorus part 2
e|---------------------------------------------------------------------|
B|---------------------------------------------------------------------|
G|---------------------------------------------------------------------|
D|---5--5-5--4--5--4--2--2--9-9-9--------------------------------------|
A|---5--5-5--4--5--4--2--2--9-9-9--------------------------------------|
E|---3--3-3--2--3--2--0--0--7-7-7--------------------------------------|

e|---------------------------------------------------------------------|
B|---------------------------------------------------------------------|
G|---------------------------------------------------------------------|
D|---5--5-5--4--5--4--5-55-4-44-2--------------------------------------|
A|---5--5-5--4--5--4--5-55-4-44-2--------------------------------------|
E|---3--3-3--2--3--2--3-33-2-22-0--------------------------------------|


chorus part 3
e|---------------------------------------------------------------------|
B|---------------------------------------------------------------------|
G|---------------------------------------------------------------------|
D|---5--5-5--4--5--4--2-2-2-2-2-9-9-9----------------------------------|
A|---5--5-5--4--5--4--2-2-2-2-2-9-9-9----------------------------------|
E|---3--3-3--2--3--2--0-0-0-0-0-7-7-7----------------------------------|

e|---------------------------------------------------------------------|
B|---------------------------------------------------------------------|
G|-------------------------5-xx-4--4-----------------------------------|
D|---5--5-5--4--5--4--2-xx-5-xx-4--4-----------------------------------|
A|---5--5-5--4--5--4--2-xx-3-xx-2--2-----------------------------------|
E|---3--3-3--2--3--2--0-xx---------------------------------------------|

chorus part 4
e|---------------------------------------------------------------------|
B|---------------------------------------------------------------------|
G|---------------------------------------------------------------------|
D|---5--5-5--4--5--4---------------------------------------------------|
A|---5--5-5--4--5--4---------------------------------------------------|
E|---3--3-3--2--3--2---------------------------------------------------|

bridge
e|---------------------------------------------------------------------|
B|---------------------------------------------------------------------|
G|---------------------------------------------------------------------|
D|---9-xx-10-xx-9---9-xx-10-xx-9---9-xx-10-xx-9---9-xx-10-xx-9---------|
A|---9-xx-10-xx-9---9-xx-10-xx-9---9-xx-10-xx-9---9-xx-10-xx-9---------|
E|---7-xx-8--xx-7---7-xx-8--xx-7---7-xx-8--xx-7---7-xx-8--xx-7---------|

outro
e|---------------------------------------------------------------------|
B|---------------------------------------------------------------------|
G|---9-----9---9-----9---9-----9---------------------------------------|
D|---9--9--9---9--9--9---9--9--9---5-xx-4-xx-2-------------------------|
A|---7--9--7---7--9--7---7--9--7---5-xx-4-xx-2-------------------------|
E|------7---------7---------7------3-xx-2-xx-0-------------------------|

intro x2
verse x2
chorus part 1
chorus part 2
verse x2
chorus part 1
chorus part 3
chorus part 1
chorus part 4
bridge x2
chorus part 1
chorus part 3
chorus part 1
chorus part 4
outro x4

Lyrics:

She dances with the man to the music and the beat
Come and make me smile cause I've fallen to my knees
She dances with the man to the music and the beat
Come and make me smile cause I've fallen to my knees

Come and make me smile I've fallen to my knees
My mind was full of death in the placew that i could scream
Come and play my heart come and feel my heart
Running for the hills I carry all my bills

And now I've ripped out your heart dear
I gotta throw it away
And now I've ripped out your heart dear
Before the break of day

It's needed in my bed I find it when I'm bored
The girls they gig and rock and can ride them to the core
My feet are on the ground and I'm of my tree
And I can hear your voice telephonig me

And now I've ripped out your heart dear
I gotta throw it away
Butterflys in my stomach
They try to flutter away
And now I've ripped out your heart dear
I wanna throw it away
And now I've ripped out your heart dear

Weakend by my feet she dances with the man
Got pimples on her knees weather on my skin
Weakend by my feet she dances with the man
Scratchs on your back dear where have you been

And now I've ripped out your heart dear
I gotta throw it away
Butterflys in my stomach
They try to flutter away
And now I've ripped out your heart dear
I wanna throw it away
And now I've ripped out your heart dear

She dances with the man to the music and the beat
Come and make me smile cause I've fallen to my knees
She dances with the man to the music and the beat
Come and make me smile cause I've fallen to my knees
She dances with the man to the music and the beat
Come and make me smile cause I've fallen to my knees
She dances with the man to the music and the beat
Come and make me smile cause I've fallen to my knees


Well thats it! Hope u enjoy.If any one has any other
Eighties Matchbox lyrics plz send me at davidgrief@hotmail.com cheers!  
===============================================================================
Добавлено: 31.07.2012
Другие материалы по этой песне:
  • Аккорды и текст

Страница создана 31.07.2012
http://primanota.ru/eighties-matchbox-b-line-disaster/temple-music-chords.htm
Привет, Гость.
Предлагаем пройти революционный курс по гитаре.
Подарок от PrimaNota.Ru, забирай!